top separator

Home

Forum

What's New

Submit a Tab

FAQ

Links

Contact Us

Link to Us

MuSpy.com

MetalTabs.com logo

Bands

0-9

A

B

C

D

E

F

G

H

I

J

K

L

M

N

O

P

Q

R

S

T

U

V

W

X

Y

Z

Search

What

Where
 

Finntroll - "Svart Djup" Guitar Tab

Plain Text Version
More Finntroll Tabs

Hits: 10083
Rated: 4.00 out of 5 (11 votes)
Updated: 2004-04-26 04:49:05

 

By:

Darkenelf

sendpm.gif

email.gif

Important note
This tab is available online because we obtained explicit permission from Finntroll or their label.


#----------------------------------PLEASE NOTE---------------------------------#
#This file is the author's own work and represents their interpretation of the #
#song. You may only use this file for private study, scholarship, or research. #
#Unless specified otherwise, this is NOT an official tab from the band members.#
#------------------------------------------------------------------------------#

  Visit MetalTabs.com for more metal tablature
  
Band: Finntroll
Album: Visor om Slutet
Song: Svart Djup
Tabbed by: Martijn Wietsma
Tab Date: 14-4-2004
Email: northerland@yahoo.co.uk
Version 0.1 (still working on the rest)

Standard E Tuning

(whole song is acoustic)

riff A
|--------------------------------------------------------|
|-------------------1--111-------------------------------|
|-------------------2--222---5--555----------------------|
|-2--222------------2--222---5--555----------------------|
|-2--222---5--555------------3--333----------------------|
|-0--000---3--333----------------------------------------|
                                                (4x)
riff B (lead under riff A)
|-------------5-5--7h8-8---------------5-5--7h8~-5-------|
|-5-5--7h8-8----------------5-5--7h8-8-------------8-7---|
|--------------------------------------------------------|
|--------------------------------------------------------|
|--------------------------------------------------------|
|--------------------------------------------------------|

|------------5-5--7h8--12-10-8--------------5-5-7--------|
|-5-5--7h8-8---------------------5-5--7h8-8-------8-8-5~-|
|--------------------------------------------------------|
|--------------------------------------------------------|
|--------------------------------------------------------|
|--------------------------------------------------------|

riff C (0:44)
|--------------------------------------------------------|
|--------------------------------------------------------|
|--------------------------------------------------------|
|-7------------------------------------------------------|
|-5--777/9-----------------------------------------------|
|----555/7-----------------------------------------------|

riff D (0:50)
|--------------------------------------------------------|
|--------------------------------------------------------|
|----------------------5-555-----------------------------|
|-2-222--5-555--7-777--5-555--2-222--5-555--7-777--5-555-|
|-2-222--5-555--7-777--3-333--2-222--5-555--7-777--5-555-|
|-0-000--3-333--5-555---------0-000--3-333--5-555--3-333-|
                                                (2x)
riff E (1:26)
|--------------------------------------------------------|
|--------------------------------------------------------|
|--------------------------------------------------------|
|----2-2-------------------------------------------------|
|-7--2-2--5-7--------------------------------------------|
|-5--0-0--3-5--------------------------------------------|

riff F (1:36) (solo 1)
|--------------------------3-2--------------------------------|
|----3-5-3--------------3~-----5~------3-5-3------------------|
|-5~-------5-4--5-4---5-------------5--------5-4--------------|
|------------------------------------------------4-5-2--5p4p2-|
|-------------------------------------------------------------|
|-------------------------------------------------------------|

riff G (2:01)
|--------------------------------------------------------|
|--------------------------------------------------------|
|--------------------------------------------------------|
|-5-4-2--5-4-2--5-4-2--5-4-2---5-4-2--5-4-2--5-4-2--5-4-2|
|--------------------------------------------------------|
|--------------------------------------------------------|

riff H
|--------------------------------------------------------|
|--------------------------------------------------------|
|--------------------------------------------------------|
|--------------------------------------------------------|
|-7--4---------------------------------------------------|
|-5--2---------------------------------------------------|

repeat riff D 2x
repeat riff E 1x

(keyboard riff) (2:24)

riff I (2:50)
|--------------------------------------------------------|
|--------------------------------------------------------|
|--------------------------------------------------------|
|--------------------------------------------------------|
|-7-777-7-7-7--5-555-5-5-5-------------------------------|
|-5-555-5-5-5--3-333-3-3-3-------------------------------|
                                                (3x)

|--------------------------------------------------------|
|--------------------------------------------------------|
|--------------------------------------------------------|
|--------------------------2-----------------------------|
|-7-777-7-7-7--5-555-5-4-4-2-----------------------------|
|-5-555-5-5-5--3-333-3-2-2-0-----------------------------|
                                                (1x)
repeat riff A 2x (end of song)

  Visit MetalTabs.com for more metal tablature

bottom separator

Contact Us | Privacy Policy | Disclaimer | Legal Notice
Copyright © 2001-2014 MetalTabs.com. All Rights Reserved.