top separator

Home

Forum

What's New

Submit a Tab

FAQ

Links

Contact Us

Link to Us

MetalTabs.com logo

Bands

0-9

A

B

C

D

E

F

G

H

I

J

K

L

M

N

O

P

Q

R

S

T

U

V

W

X

Y

Z

Search

What

Where
 

Cruachan - "Pagan" Guitar Tab

Plain Text Version
More Cruachan Tabs

Hits: 4949
Rated: 4.40 out of 5 (5 votes)
Updated: 2004-04-23 08:35:59

 

By:

Darkenelf

sendpm.gif

email.gif

Important note
This tab is available online because we obtained explicit permission from Cruachan or their label.


#----------------------------------PLEASE NOTE---------------------------------#
#This file is the author's own work and represents their interpretation of the #
#song. You may only use this file for private study, scholarship, or research. #
#Unless specified otherwise, this is NOT an official tab from the band members.#
#------------------------------------------------------------------------------#

  Visit MetalTabs.com for more metal tablature
  
Band: Cruachan
Album: Pagan
Song: Pagan
Tabbed by: Martijn Wietsma
Tab Date: 21-04-2004
Email: northerland@yahoo.co.uk

Standard E Tuning

riff A
|--------------------------------------------------------|
|--------------------------------------------------------|
|--------------------------------------------------------|
|-7-5-7-9-10-9-7-5-----7-5-7-9-10-9-7--------------------|
|-5-3-5-7--8-7-5-3-----5-3-5-7--8-7-5--------------------|
|--------------------------------------------------------|
                                                (4x)
riff B (0:42)
|--------------------------------------------------------|
|--------------------------------------------------------|
|-7-5-7-9-10-9-7-5-----7-5-7-9-10-9-7--------------------|
|-5-3-5-7--8-7-5-3-----5-3-5-7--8-7-5--------------------|
|--------------------------------------------------------|
|--------------------------------------------------------|
                                                (1x)
riff A
|--------------------------------------------------------|
|--------------------------------------------------------|
|--------------------------------------------------------|
|-7-5-7-9-10-9-7-5-----7-5-7-9-10-9-7--------------------|
|-5-3-5-7--8-7-5-3-----5-3-5-7--8-7-5--------------------|
|--------------------------------------------------------|
                                                (1x)
riff C
|--------------------------------------------------------|
|--------------------------------------------------------|
|-7------------------------------------------------------|
|-5-10-8-10--8-7-8--7-5-7--------------------------------|
|----8-6--8--6-5-6--5-3-5--------------------------------|
|--------------------------------------------------------|
                                                (1x)
repeat riff A 2x
repeat riff B 1x (1:09)
repeat riff A 1x (1:14)
repeat riff C 1x (1:19)

riff D
|--------------------------------------------------------|
|--------------------------------------------------------|
|--------------------------------------------------------|
|-7-888--7-888--7-888--10-/-12---------------------------|
|-5-666--5-666--5-666---8-/-10---------------------------|
|--------------------------------------------------------|
                                                (6x)
riff E
|--------------------------------------------------------|
|--------------------------------------------------------|
|--------------------------------------------------------|
|-7777-6666-4444-6666----7777-6666-9999-11-11-11-11------|
|-5555-4444-2222-4444----5555-4444-7777--9--9--9--9------|
|--------------------------------------------------------|
                                                (2x)
repeat riff D 4x (2:16)

riff F (2:38)
|--------------------------------------------------------|
|--------------------------------------------------------|
|--------------------------------------------------------|
|-7~~~~--------------------------------------------------|
|-5------------------------------------------------------|
|--------------------------------------------------------|

riff G
|-------------------7-7p5p3--------------------5-5p3p2---|
|-5h7h8p5-5h7h8p5-5----------5h7h8p5-5h7h8p5-3-----------|
|--------------------------------------------------------|
|--------------------------------------------------------|
|--------------------------------------------------------|
|--------------------------------------------------------|


|-------------------7-7p5p3--7-8p7h8-10p8p7--------------|
|-5h7h8p5-5h7h8p5-5-------------------------8-10-10p8p7--|
|--------------------------------------------------------|
|--------------------------------------------------------|
|--------------------------------------------------------|
|--------------------------------------------------------|
                                                (2x)
repeat riff H under riff G (2:55)
|--------------------------------------------------------|
|-5-5----5-5--5h6-\3--5-5------3-5-----------------------|
|-----5-------------------5--5---------------------------|
|--------------------------------------------------------|
|--------------------------------------------------------|
|--------------------------------------------------------|
                                                (2x)
repeat riff G 1x (3:04)
repeat riff H 1x, I 1x (3:14)

riff I (3:24)
|-3h5-/7-3h5---3h5-/7---3h5-/7--3h5-----5-5p3p2----------|
|-------------------------------------3------------------|
|--------------------------------------------------------|
|--------------------------------------------------------|
|--------------------------------------------------------|
|--------------------------------------------------------|

repeat riff G 1x (3:35)
repeat riff G+H 1x
repeat riff I (3:56) 2x
repeat riff E 2x (4:06)
repeat riff D 6x (4:27)

riff J (4:50)
|--------------------------------------------------------|
|--------------------------------------------------------|
|--------------------------------------------------------|
|-7-888---7-888---7-888--10-12---------------------------|
|-5-666---5-666---5-666---8-10---------------------------|
|--------------------------------------------------------|
  .       .       .                                (2x)

  Visit MetalTabs.com for more metal tablature

bottom separator

Contact Us | Privacy Policy | Disclaimer | Legal Notice
Copyright © 2001-2014 MetalTabs.com. All Rights Reserved.