top separator

Home

Forum

What's New

Submit a Tab

FAQ

Links

Contact Us

Link to Us

MetalTabs.com logo

Bands

0-9

A

B

C

D

E

F

G

H

I

J

K

L

M

N

O

P

Q

R

S

T

U

V

W

X

Y

Z

Search

What

Where
 

Cruachan - "Ard Ri Na Heireann" Guitar Tab

Plain Text Version
More Cruachan Tabs

Hits: 4063
Rated: 4.75 out of 5 (4 votes)
Updated: 2004-04-22 04:17:16

 

By:

Darkenelf

sendpm.gif

email.gif

Important note
This tab is available online because we obtained explicit permission from Cruachan or their label.


#----------------------------------PLEASE NOTE---------------------------------#
#This file is the author's own work and represents their interpretation of the #
#song. You may only use this file for private study, scholarship, or research. #
#Unless specified otherwise, this is NOT an official tab from the band members.#
#------------------------------------------------------------------------------#

  Visit MetalTabs.com for more metal tablature
  
Band: Cruachan
Album: Pagan
Song: Ard ri na Heireann
Tabbed by: Martijn Wietsma
Tab Date: 21-04-2004
Email: northerland@yahoo.co.uk

Standard E Tuning

riff A
|-------------------------------------------------------|
|-------------------------------------------------------|
|-------------------------------------------------------|
|-4~-----2----------------------------------------------|
|-2---5--2----------------------------------------------|
|-----3--0---00-00-00-00-00-----------------------------|
             .. .. .. .. ..                        (1x)

riff B
|-------------------------------------------------------|
|-------------------------------------------------------|
|-------------------------------------------------------|
|-4--------------------2--------------------------------|
|-2-22-22-22-22-22--5--2--------------------------------|
|-------------------3--0-00-00-00-00-00-----------------|
    .. .. .. .. ..       .. .. .. .. ..                (3x)

riff C (0:24)
|-------------------------------------------------------|
|-------------------------------------------------------|
|-------------------------------------------------------|
|-4-4-4-4-4-4-4-----2-2-2-2-2-2-2-2---------------------|
|-2-2-2-2-2-2-2--5--2-2-2-2-2-2-2-2---------------------|
|----------------3--0-0-0-0-0-0-0-0---------------------|
                                                (2x)
riff D (0:32)
|-------------------------------------------------------|
|-------------------------------------------------------|
|-------------------------------------------------------|
|--------------2-------------------2---2---2------------|
|----3----5----2----7-------3----5-2---2---2------------|
|-11-1-33-3-00-0-55-5----11-1-33-3-0-0-0-0-0------------|
  ..   ..   ..   ..      ..   ..     .   .        (1x)

riff E (0:37)
|-------------------------------------------------------|
|-------------------------------------------------------|
|-------------------------------------------------------|
|-----------------2----------------------2---2---2------|
|-----3-----5-----2-----7--------3-----5-2---2---2------|
|-111-1-333-3-000-0-555-5----111-1-333-3-0-0-0-0-0------|
  ...   ...   ...   ...      ...   ...     .   .(1x)

riff F (play this under riff D+E)
|-1-3---5---1-3------------1-3---5---1-3----------------|
|-----5---------5--------------5---------5--------------|
|-------------------------------------------------------|
|-------------------------------------------------------|
|-------------------------------------------------------|
|-------------------------------------------------------|

repeat riff B 2x (0:42)
repeat riff C 2x
repeat riff D+F 1x
repeat riff E+F 1x

riff G (1:15)
|---7-7--7-5--8p7p5-7--------10-10----------------------|
|-5-----------------------12-------12-10h----10-12------|
|-----------------------------------------12------------|
|-------------------------------------------------------|
|-------------------------------------------------------|
|-------------------------------------------------------|

|---7-7--7-5--8p7p5-7-----10----------------------------|
|-5--------------------------12-10----10h12-------------|
|----------------------------------12--------9h10p9-9---|
|-------------------------------------------------------|
|-------------------------------------------------------|
|-------------------------------------------------------|
                                                (4x)
riff H (1:37)
|-------------------------------------------------------|
|-------------------------------------------------------|
|-------------------------------------------------------|
|-9----9--7-10-9----------2-22-2------------------------|
|-7-77-7--5--8-7--(3x)----2-22-2--7-10-9--(1x)----------|
|-------------------------0-00-0--5--8-7----------------|
    ..                      ..                        (2x)

riff I (1:57)
|-------------------------------------------------------|
|-------------------------------------------------------|
|-------------------------------------------------------|
|-------------------------2-22-2------------------------|
|-7-7-7--5--8-7--(3x)-----2-22-2--7-10-9--(1x)----------|
|-------------------------0-00-0--5--8-7----------------|
    .                       ..                        (2x)

repeat riff G+H 1x (2:20)
repeat riff G+I 1x (2:29)

riff J (2:40)
|-------------------------------------------------------|
|-------------------------------------------------------|
|-------------------------------------------------------|
|-4--44-4--4--44-4-----2--22-2--------------------------|
|-2--22-2--2--22-2--5--2--22-2--7-10-9------------------|
|-------------------3--0--00-0--5--8-7------------------|
     ..       ..          ..                        (2x)

repeat riff B 2x (2:50)
repeat riff C 2x (3:03)
repeat riff D+F 1x (3:13)
repeat riff E+F 1x
repeat riff B 2x (3:23)
repeat riff C 2x (3:33)
repeat riff D+F 1x (3:44)
repeat riff E+F 1x
repeat riff G 2x (3:55)
repeat riff G+H 1x (4:15)
repeat riff G+H 1x
repeat riff G+H 1x
repeat riff G+H 1x
repeat riff G+H 1x

  Visit MetalTabs.com for more metal tablature

bottom separator

Contact Us | Privacy Policy | Disclaimer | Legal Notice
Copyright © 2001-2014 MetalTabs.com. All Rights Reserved.