top separator

Home

Forum

What's New

Submit a Tab

FAQ

Links

Contact Us

Link to Us

MetalTabs.com logo

Bands

0-9

A

B

C

D

E

F

G

H

I

J

K

L

M

N

O

P

Q

R

S

T

U

V

W

X

Y

Z

Search

What

Where
 

Botch - "Swimming The Channel Vs. Driving The Chunnel" Guitar Tab

Plain Text Version
More Botch Tabs

Hits: 7791
Rated: 4.09 out of 5 (11 votes)
Updated: 2004-04-21 07:39:38

 

By:

johnmansley

sendpm.gif

email.gif

Important note
We did our best to reach Botch and ask for their permission to publish this tab. Unfortunately they did not respond to our requests or we could not find a way to contact them. This tab is available online until Botch tells us to take it down.


#----------------------------------PLEASE NOTE---------------------------------#
#This file is the author's own work and represents their interpretation of the #
#song. You may only use this file for private study, scholarship, or research. #
#Unless specified otherwise, this is NOT an official tab from the band members.#
#------------------------------------------------------------------------------#

  Visit MetalTabs.com for more metal tablature
  
Band:  Botch
Album: We Are The Romans
Song:  Swimming The Channel Vs Driving The Chunnel

Copyright (c)  (Hydra Head) (1999)
Version 1.0 - (13/4/04)

Transcribed By: John Mansley
Email:          john@smansley.freeserve.co.uk


.  - palm mute           /  - slide up to
\  - slide down to       ~  - vibrato
h  - hammer on           b  - Bend
p  - pull off            Suffixes for bend
t  - tap                 f  - full bend    h - half bend
ph - pinched harmonic    q  - quarter bend t - tap bend
*  - see comment         ^  - Hold bend    r release bend
x  - Stuccatto           ~  - vibrato bend
,  - slight palm mute    () - ghost note, sustained note
"  - tremolo note        <> - Trill
nh - natural harmonic    .  - (above note) staccato

Tuning: Tune down 2 whole steps to C F A# D# G C (or at least I think
        they use this tuning)

Tone:   Play throughout with a very slight hint of overdrive


Riff A1:

|----------------|----------------|----------------|----------------|
|----------------|----------0-----|----8------7----|----------------|
|----2-------5---|----------------|----------------|----------7-----|
|----------------|----------------|-/4---4---------|----------------|
|-0-----0-2----2-|-3--------------|---------5---5--|-3--------------|
|----------------|----------------|----------------|----------------|


Riff A2:

|----------------|----------------|----------------|----5-------7---|
|----------------|----------0-0-0-|----8------7----|----------------|
|----2-------5---|----------------|----------------|----------------|
|----------------|----------------|-/4---4---------|4/5---5-5/7---7-|
|-0-----0-2----2-|-3--------------|---------5---5--|----------------|
|----------------|----------------|----------------|----------------|


Riff A3:

|----------------|----------------|----------------|----------------|
|----------------|----------0-----|----8------7----|----8------10---|
|----2-------5---|----------------|----------------|----------------|
|----------------|----------------|-/4---4---------|-/4---4-/5----5-|
|-0-----0-2----2-|-3--------------|---------5---5--|----------------|
|----------------|----------------|----------------|----------------|


|----------------|----------------|----------------|----------------|
|----8------7----|----8------7----|----8------7----|----8------7----|
|----------------|----------------|----------------|----------------|
|-/4---4---------|-/4---4---------|-/4---4---------|-/4---4---------|
|---------5---5--|---------5---5--|---------5---5--|---------5---5--|
|----------------|----------------|----------------|----------------|


|----------------|----------------|
|----8------7----|----8------10---|
|----------------|----------------|
|-/4---4---------|-/4---4-/5----5-|
|---------5---5--|----------------|
|----------------|----------------|


Riff A4:

|----------------|----------------|----------------|----------------|
|----------------|----------0-0-0-|----8------7----|----8------10-10|
|----2-------5---|----------------|----------------|----------------|
|----------------|----------------|-/4---4---------|-/4---4-/5------|
|-0-----0-2----2-|-3--------------|---------5---5--|----------------|
|----------------|----------------|----------------|----------------|


Riff B:              _________________  _________________
                                 1,2,3|                 4|
|-------------------|------------------|------------------|
|-/12-12-12---------|------------------|------------------|
|-------------------|------------------|------------------|
|-----------5--5--5-|-7--7--7--7--7--7-|-7-----------7\---|
|-------------------|------------------|------------------|
|-------------------|------------------|------------------|


Riff C:

|-0--------------|-4--------------|-5--------------|-4--------------|
|-0--------------|-4--------------|-5--------------|-4--------------|
|-2--------------|-6--------------|-7--------------|-6--------------|
|-2--------------|-6--------------|-7--------------|-6--------------|
|-0--------------|-4--------------|-5--------------|-4--------------|
|----------------|----------------|----------------|----------------|



Song Structure:

Riff A1  (x4)
Riff A2
Riff A3
Riff A1
Riff A4
Riff B
Riff C   (x2)


That's it.  It should be nearing perfection but if you spot a mistake
(or just want to make a comment) please let me know.

Also, I encourage you to register a rating for this tab - whether it
be a good or bad one.  The only way I know that a tab needs improving
or not is if people give it a rating.  Thanks in advance.


END

  Visit MetalTabs.com for more metal tablature

bottom separator

Contact Us | Privacy Policy | Disclaimer | Legal Notice
Copyright © 2001-2014 MetalTabs.com. All Rights Reserved.