top separator

Home

Forum

What's New

Submit a Tab

FAQ

Links

Contact Us

Link to Us

MetalTabs.com logo

Bands

0-9

A

B

C

D

E

F

G

H

I

J

K

L

M

N

O

P

Q

R

S

T

U

V

W

X

Y

Z

Search

What

Where
 

Anata - "A Problem Yet to be Solved" Guitar Tab

Plain Text Version
More Anata Tabs

Hits: 6296
Rated: 4.23 out of 5 (13 votes)
Updated: 2004-05-03 06:06:06

 

By:

johnmansley

sendpm.gif

email.gif

Important note
This tab is available online because we obtained explicit permission from Anata or their label.


#----------------------------------PLEASE NOTE---------------------------------#
#This file is the author's own work and represents their interpretation of the #
#song. You may only use this file for private study, scholarship, or research. #
#Unless specified otherwise, this is NOT an official tab from the band members.#
#------------------------------------------------------------------------------#

  Visit MetalTabs.com for more metal tablature
  
Band:  Anata
Album: Under A Stone With No Inscription
Song:  A Problem Yet To Be Solved

Copyright (c)  (Earache) (2004)
Version 1.0 - (1/4/04)

Transcribed By: John Mansley
Email:          john@smansley.freeserve.co.uk


.  - palm mute           /  - slide up to
\  - slide down to       ~  - vibrato
h  - hammer on           b  - Bend
p  - pull off            Suffixes for bend
t  - tap                 f  - full bend    h - half bend
ph - pinched harmonic    q  - quarter bend t - tap bend
*  - see comment         ^  - Hold bend    r release bend
x  - Stuccatto           ~  - vibrato bend
,  - slight palm mute    () - ghost note, sustained note
"  - tremolo note        <> - Trill
nh - natural harmonic    .  - (above note) staccato

Tuning: Tune down 1.5 steps to C# F# B E G# C#


Riff A1:

|-----------------|----------------------|
|-----------------|----------------------|
|---------------"-|----------------------|
|-"-"-"-"-"-"-"-3-|-"-"-"-"-------3p2----|
|-2-1-2-3-2-1-2---|-2-1-2-3-1p0------3p0-|
|-----------------|------------3-2-------|
                               . .


Riff B1:                       __________________________________
                                                                1|
|-----------------------------|-----------------------------------|
|-----------------------------|-----------------------------------|
|-3p2-------------------------|-3p2-------8-7h8p7-5p4p2p1---------|
|----4p3-3p2-------2h3-4p3----|----4p3-/9-----------------4p3p1p0-|
|-----------4p3-0p3-------4p3-|-----------------------------------|
|-----------------------------|-----------------------------------|

 ______________________________
                              2|
|-------------------------------|
|-------------------------------|
|-3p2---------------------------|
|----4p3-3p2--------------------|
|-----------4p3-2-3-3-5-5-6-5-3-|
|---------------0-1-1-3-3-4-3-1-|
                . . . . . . . .


Riff B2:

|-----------------------------|-----------------------------------|
|-----------------------------|-----------------------------------|
|-3p2-------------------------|-3p2-------8-7h8p7-5p4p2p1---------|
|----4p3-3p2-------2h3-4p3----|----4p3-/9-----------------4p3p1p0-|
|-----------4p3-0p3-------4p3-|-----------------------------------|
|-----------------------------|-----------------------------------|


|-------------------------------|------------------------------|
|-------------------------------|------------------------------|
|-3p2---------------------------|------------------------------|
|----4p3-3p2--------------------|------------------------------|
|-----------4p3-2-3-3-5-5-6-5-3-|-2-3-5-6-/9-8-2-3-5-6-8-6-5-3-|
|---------------0-1-1-3-3-4-3-1-|-0-1-3-4-/7-6-0-1-3-4-6-4-3-1-|
                . . . . . . . .   . . . .    . . . . . . . . .


Riff C1:

|---------------------|---------------------|
|---------------------|---------------------|
|---------------------|---------------------|
|---4-3-----3/4-6-4\3-|---4-3-----3/4-6--4--|
|-2-2-1---2-1/2-4-2\1-|-2-2-1---2-1/2-4--2--|
|-0-------0-----------|-0-------0-----------|
                                      .  .


Riff C2:

|---------------------|---------------------|
|---------------------|---------------------|
|---------------------|---------------------|
|---4-3-----3/4-6-4\3-|---4-3-----3/4-6--4--|
|-2-2-1---2-1/2-4-2\1-|-2-2-1---2-1/2-4--2--|
|-0-------0-----------|-0-------0-----------|
                                         .


Riff D:

|-------------------------|----------------------|
|-------------------------|----------------------|
|-------------------------|----------------------|
|-------------------------|----------------------|
|-------------------------|----------------------|
|-0-4-3~~~-0--3-4-6-4-3-4-|-0-4-3~~~-0--3-4-6--4-|


Riff E: (* release the pam muting immediately to let the notes
         ring and natural harmonics to form)

|----------------|----------------|-----------------|
|----------------|----------------|-----------------|
|------.-------.-|------.-------.-|-----------------|
|-444440--444440-|-444440--444440-|-4h5p4-7p4-5p4---|
|----------------|----------------|---------------7-|
|----------------|----------------|-----------------|


|-----------------|-----------------|-------------------|
|-----------------|-----------------|-------------------|
|-----------------|-----*-----------|-------.---------.-|
|-4---------------|-----0-----------|-4p0-4p0---4p0-4p0-|
|---7-5-4-5-4-2---|-----0-----------|-------------------|
|---------------5-|-3-2-0-----------|-------------------|
                        .

|-----------------|-----------------|-------------------|
|-----------------|-----------------|-------------------|
|-------.-*-------|-----------------|-trill~~~~~~~~~~~~-|
|-4p0-4p0-0-------|-----------------|-0<4>--------------|
|---------0-------|-----------------|-------------------|
|---------0-------|-----------------|-------------------|
          .

|-------------------|-----------------|-----------------|
|-------------------|-----------------|-----------------|
|-~~~~~~~~~~~~~~-*--|-----------------|-----------------|
|----------------0--|-4h5p4-7p4-5p4---|-4---------------|
|----------------0--|---------------7-|---7-5-4-5-4-2---|
|----------------0--|-----------------|---------------5-|
                 .                  .   . . . . . . . .

             nh--
|-----------------|
|-----------------|
|-----*-----------|
|-----0---------5-|
|-----0-------5---|
|-3-2-0-----------|
  . . .


Riff F: (Thanks go to tkphantom16 for the help with this riff)

|---------------------------------|-----------------------------|
|---------------------------------|-----------------------------|
|---------------------------------|-----------------------------|
|-4p0-----4p0-----5p0---4p0-------|-------------5p0---4p0-------|
|-----2h5-----2h5-----2-----2-0h2-|-5p0-----2h5-----5-----5-2h5-|
|---------------------------------|-----0h3---------------------|


Riff A2:

|Gtr1
|-----------------|----------------------|
|-"-"-"-"-"-"-"---|----------------------|
|-4-3-4-5-4-3-4-"-|----------------------|
|---------------3-|-"-"-"-"-------3p2----|
|-----------------|-2-1-2-3-1p0------3p0-|
|-----------------|------------3-2-------|
|                 |            . .       |
|Gtr2             |                      |
|-----------------|----------------------|
|-----------------|----------------------|
|---------------"-|----------------------|
|-"-"-"-"-"-"-"-3-|-"-"-"-"-------3p2----|
|-2-1-2-3-2-1-2---|-2-1-2-3-1p0------3p0-|
|-----------------|------------3-2-------|
                               . .


Riff C3:

|---------------------|-------------------------|
|---------------------|-------------------------|
|---------------------|-------------------------|
|---4-3-----3/4-6-4\3-|----------------------4--|
|-2-2-1---2-1/2-4-2\1-|---22111111--11224444-2--|
|-0-------0-----------|-00--------00------------|
                                             .

|--------------------------|--------------------------|
|--------------------------|--------------------------|
|--------------------------|--------------------------|
|--------------------------|--------------------------|
|---22111111--112244442211-|---22111111--112244442211-|
|-00--------00-------------|-00--------00-------------|



Outro:

|Gtr1
|-----------------------------|-----------------------------|
|-----------------------------|-----------------------------|
|-3p2-------------------------|-.---------------------------|
|----4p3-3p2-------2h3-4p3----|-4---------------------------|
|-----------4p3-0p3-------4p3-|-2---------------------------|
|-----------------------------|-----------------------------|
|                             |                             |
|Gtr2                         |                             |
|-----------------------------|-----------------------------|
|-----------------------------|-----------------------------|
|-.------.------.------.------|-.---------------------------|
|-4------4------4------4------|-4---------------------------|
|-2------2------2------2------|-2---------------------------|
|-----------------------------|-----------------------------|



Song Structure:

Riff A1  x4
Riff B1
Riff B2
Riff A1  x2
Riff B2
Riff C1
Riff C2
Riff D   x2
Riff C2  x2
Riff D   x2
Riff E
Riff F   x4
Riff A1  x2
Riff A2
Riff A1
Riff B2
Riff C3
Riff D   x5
Riff E
Riff F   x4
Outro


It should be all there but if you spot a mistake or just want to
make a comment don't hesitate to contact me.  Also, I encourage
you to register a rating for this tab - whether it be a good or
bad one.  The only way I know that a tab needs improving or not
is if people give it a rating.  Thanks in advance.


END

  Visit MetalTabs.com for more metal tablature

bottom separator

Contact Us | Privacy Policy | Disclaimer | Legal Notice
Copyright © 2001-2014 MetalTabs.com. All Rights Reserved.