top separator

Home

Forum

What's New

Submit a Tab

FAQ

Links

Contact Us

Link to Us

MetalTabs.com logo

Bands

0-9

A

B

C

D

E

F

G

H

I

J

K

L

M

N

O

P

Q

R

S

T

U

V

W

X

Y

Z

Search

What

Where
 

Bewitched - "Let The Blood Run Red" Guitar Tab

Plain Text Version
More Bewitched Tabs

Hits: 2321
Rated: 4.00 out of 5 (2 votes)
Updated: 2004-04-16 11:16:52

 

By:

sendpm.gif

email.gif

Important note
We did our best to reach Bewitched and ask for their permission to publish this tab. Unfortunately they did not respond to our requests or we could not find a way to contact them. This tab is available online until Bewitched tells us to take it down.


#----------------------------------PLEASE NOTE---------------------------------#
#This file is the author's own work and represents their interpretation of the #
#song. You may only use this file for private study, scholarship, or research. #
#Unless specified otherwise, this is NOT an official tab from the band members.#
#------------------------------------------------------------------------------#

  Visit MetalTabs.com for more metal tablature
  
Band:Bewitched
Song:Let The Blood Run Red
Album:At The Gates Of Hell

Copyright (c) : OSMOSE Productions 1999

Transcribed by : mitsosxx@hotmail.com

Tuning: Normal (EADGBe)
.  - palm mute           /  - slide up to
\  - slide down to       ~  - vibrato
h  - hammer on           b  - Bend
p  - pull off            Suffixes for bend
t  - tap                 f  - full bend    h - half bend
ah - artificial harmonic q  - quarter bend t - tap bend
*  - see comment         ^  - Hold bend    r release bend
x  - Stuccatto           ~  - vibrato bend
,  - slight palm mute    () - bend to corresponding fret
"  - tremolo note        <> - Trill

info:
no..structure...spacing=shit...listen to the song for timing....
Hopefully i will be transcribing the whole "AT THE GATES OF HELL"
 album soon...stay tuned...
PS:track 7 coming up next...




Riff 1->00:00
e|--------------------------------------------------------------|
B|--------------------------------------------------------------|
G|--------------------------------------------------------------|
D|---------------------------------------ah---------------------|
A|-/--0-3~-0-2~-0-3~-0-0-------0-3-0-2-0-3----------------------|
E|-/---------------------0-3-4----------------------------------|

riff 2->00:13
e|--------------------------------------------------------------|
B|--------------------------------------------------------------|
G|--{              x2              }----------------------------|
D|--2-----------------------------------------------------------|
A|--000000...--------0-3-0-2-0-3-0-0----------------------------|
E|-------------0-3-4--------------------------------------------|

e|--------------------------------------------------------------|
B|--------------------------------------------------------------|
G|--{              x2              }----------------------------|
D|--------------------------------------------------------------|
A|--3----------------0-3-0-2-0-3-0-0----------------------------|
E|--111111...--0-3-4--------------------------------------------|

Riff 3 refrain->00:39
e|--------------------------------------------------------------|
B|--------------------------------------------------------------|
G|--------------------------------------------------------------|
D|--2-----------------------------------------------------------|
A|--000000...-5-----------3-------------------------------------|
E|------------333333...---111111...-----------------------------|

lick 1->00:50
e|--------------------------------------------------------------|
B|--------------------------------------------------------------|
G|--9-12-11-8-11-10-8-/14---------------------------------------|
D|--------------------------------------------------------------|
A|--------------------------------------------------------------|
E|--------------------------------------------------------------|

lick 2->01:42
e|--------------------------------------------------------------|
B|--------------------------------------------------------------|
G|--7-5--5~-----------------------------------------------------|
D|--7-5--5~-----------------------------------------------------|
A|--------------------------------------------------------------|
E|--------------------------------------------------------------|

riff 4->01:55
e|--------------------------------------------------------------|
B|--------------------------------------------------------------|
G|--------------------------------------------------------------|
D|--5------7--2-----------5--7--9-------------------------------|
A|--3--5---5--000000....--3--5--7-------------------------------|
E|-----3--------------------------------------------------------|

solo...
e|--------------------------------------------------------------|
B|---------------------------------5----8---8---8---------------|
G|-----12-14-14b16r14-12-----------7b9r7b9r7b9r7b9--------------|
D|--/14------------------14-14~----{hold the bend while hitting-|
A|----------------------------------the G note}-----------------|
E|--------------------------------------------------------------|

e|--------------------------------------------------------------|
B|--------------------5h8p5---5h8p5---5h8p5---8b10-8b10---------|
G|--5h7p5------5-7-7b8-----7b8-----7b8-----7b8------------------|
D|-------7---/7-------------------------------------------------|
A|--------------------------------------------------------------|
E|--------------------------------------------------------------|

e|--------------------------------------------------------------|
B|---8b10--6h8p6p5-6-5h6p5----------------{then does some ---}--|
G|------------------------7-5-7b8r5-------{tapping maybe?----}--|
D|----------------------------------7-5-7-{i wouldn't know...}--|
A|--------------------------------------------------------------|
E|--------------------------------------------------------------|

e|--------------------------------------------------------------|
B|--15b17-15b17r17-13-12-13-12h13p12----------------------------|
G|-----------------------------------14-12-14-------------------|
D|--------------------------------------------------------------|
A|--------------------------------------------------------------|
E|--------------------------------------------------------------|

e|--------------------------------------------------------------|
B|----------------------------{there goes that thing again}-----|
G|--14b16-14b16r14-12-14-14~------------------------------------|
D|--------------------------------------------------------------|
A|--------------------------------------------------------------|
E|--------------------------------------------------------------|

end with this..
e|--------------------------------------------------------------|
B|--/17-15-13-15-13-12-13-12-10-12-10-8-8/10--------------------|
G|--------------------------------------------------------------|
D|--------------------------------------------------------------|
A|--------------------------------------------------------------|
E|--------------------------------------------------------------|

end....

  Visit MetalTabs.com for more metal tablature

bottom separator

Contact Us | Privacy Policy | Disclaimer | Legal Notice
Copyright © 2001-2014 MetalTabs.com. All Rights Reserved.