top separator

Home

Forum

What's New

Submit a Tab

FAQ

Links

Contact Us

Link to Us

MuSpy.com

MetalTabs.com logo

Bands

0-9

A

B

C

D

E

F

G

H

I

J

K

L

M

N

O

P

Q

R

S

T

U

V

W

X

Y

Z

Search

What

Where
 

Bewitched - "At The Gates Of Hell" Guitar Tab

Plain Text Version
More Bewitched Tabs

Hits: 2708
Updated: 2004-04-16 11:16:49

 

By:

sendpm.gif

email.gif

Important note
We did our best to reach Bewitched and ask for their permission to publish this tab. Unfortunately they did not respond to our requests or we could not find a way to contact them. This tab is available online until Bewitched tells us to take it down.


#----------------------------------PLEASE NOTE---------------------------------#
#This file is the author's own work and represents their interpretation of the #
#song. You may only use this file for private study, scholarship, or research. #
#Unless specified otherwise, this is NOT an official tab from the band members.#
#------------------------------------------------------------------------------#

  Visit MetalTabs.com for more metal tablature
  
Band:Bewitched
Song:At The Gates Of Hell
Album:At The Gates Of Hell

Copyright (c) : OSMOSE Productions 1999

Transcribed by : mitsosxx@hotmail.com

Tuning: Normal (EADGBe)
.  - palm mute           /  - slide up to
\  - slide down to       ~  - vibrato
h  - hammer on           b  - Bend
p  - pull off            Suffixes for bend
t  - tap                 f  - full bend    h - half bend
ph - pinched harmonic    q  - quarter bend t - tap bend
*  - see comment         ^  - Hold bend    r release bend
x  - Stuccatto           ~  - vibrato bend
,  - slight palm mute    () - bend to corresponding fret
"  - tremolo note        <> - Trill

info:
no..structure...spacing=shit...listen to the song for timing....
Hopefully i will be transcribing the whole "AT THE GATES OF HELL"
album soon...stay tuned...
PS:we're up to track 5 and counting...



Riff 1->00:00
e|--------------------------------------------------------------|
B|--5-----8------7-----10-----12-----10-----8------7------------|
G|--7b9---10b12--9b11--12b14--14b16--12b14--10b12--9b11---------|
D|--------------------------------------------------------------|
A|--------------------------------------------------------------|
E|--------------------------------------------------------------|

second time a third guitar comes in with the notes at the highest
point of each bend....

e|--------------------------------------------------------------|
B|--------------------------------------------------------------|
G|--9~--12~--11~--14~--12~--14~--16~--12~--11~--9~--------------|
D|--------------------------------------------------------------|
A|--------------------------------------------------------------|
E|--------------------------------------------------------------|

e|--------------------------------------------------------------|
B|--5-----8------7-----10-----8------10-----12------------------|
G|--7b9---10b12--9b11--12b14--10b12--12b14--14b16--12~-11~--9~--|
D|--------------------------------------------------------------|
A|--------------------------------------------------------------|
E|--------------------------------------------------------------|

also there is a clear guitar in the background playing sth like
(i can't really make it out)
e|--------------------------------------------------------------|
B|--------------------------------------------------------------|
G|--9--9-9---7--7-7---5--5-5---7--7-7---9-----------------------|
D|--9---9-9--7---7-7--5---5-5--7---7-7--9-----------------------|
A|--7--------5--------3--------5--------7...--------------------|
E|--------------------------------------------------------------|


Riff 2a->00:39
e|--------------------------------------------------------------|
B|--------------------------------------------------------------|
G|--------------------------------------------------------------|
D|---9--9--9--9--10----9--9--9--10-10---------------------------|
A|---7--7--7--7--8-----7--7--7--8--8----------------------------|
E|-00-00-00-00-00----00-00-00-00-00-----------------------------|


Riff 2b
e|--------------------------------------------------------------|
B|--------------------------------------------------------------|
G|--------------------------------------------------------------|
D|----9--9--9--9--10----7--7--10-7--10--------------------------|
A|----7--7--7--7--8-----5--5--8--5--8---------------------------|
E|--00-00-00-00-00----00-00-00-00-00----------------------------|


Riff 3->01:21 guitar 1
e|--------------------------------------------------------------|
B|--------------------------------------------------------------|
G|--------------------------------------------------------------|
D|----10-9-10-12-9-10-99-10----10-9-10-12-9-10-9-10-------------|
A|--00--0----0--0-0--0-------00--0----0--0-0--0-----------------|
E|--------------------------------------------------------------|

e|--------------------------------------------------------------|
B|--------------------------------------------------------------|
G|--------------------------------------------------------------|
D|----10-9-10-12-9-10-99-10---10---10---7----7----9-------------|
A|--00--0----0--0-0--0--------8-88-8-88-5-55-5-55-7-------------|
E|--------------------------------------------------------------|


Riff 3 guitar 2
e|--------------------------------------------------------------|
B|--------------------------------------------------------------|
G|--------------------------------------------------------------|
D|----14-12-14-15-12-14-1212-14---14-12-14-15-12-14-1212-14-----|
A|--00--0-----0--0--0-----------00--0-----0--0--0--0------------|
E|--------------------------------------------------------------|


e|--------------------------------------------------------------|
B|--------------------------------------------------------------|
G|--------------------------------------------------------------|
D|----14-12-14-15-12-14-1212-14---10---10---7----7----9---------|
A|--00--0-----0--0--0-------------8-88-8-88-5-55-5-55-7---------|
E|--------------------------------------------------------------|


interlude->02:47
both guitars keep strumming the open A string
and at some point the following two chords are played....

e|--------------------------------------------------------------|
B|--------------------------------------------------------------|
G|---5-----------2----------------------------------------------|
D|---5-----------2----------------------------------------------|
A|-/------------------------------------------------------------|
E|-/------------------------------------------------------------|

end...

  Visit MetalTabs.com for more metal tablature

bottom separator

Contact Us | Privacy Policy | Disclaimer | Legal Notice
Copyright © 2001-2014 MetalTabs.com. All Rights Reserved.