top separator

Home

Forum

What's New

Submit a Tab

FAQ

Links

Contact Us

Link to Us

MuSpy.com

MetalTabs.com logo

Bands

0-9

A

B

C

D

E

F

G

H

I

J

K

L

M

N

O

P

Q

R

S

T

U

V

W

X

Y

Z

Search

What

Where
 

Bewitched - "The Devil's Daughters" Guitar Tab

Plain Text Version
More Bewitched Tabs

Hits: 2626
Updated: 2004-04-16 11:16:45

 

By:

sendpm.gif

email.gif

Important note
We did our best to reach Bewitched and ask for their permission to publish this tab. Unfortunately they did not respond to our requests or we could not find a way to contact them. This tab is available online until Bewitched tells us to take it down.


#----------------------------------PLEASE NOTE---------------------------------#
#This file is the author's own work and represents their interpretation of the #
#song. You may only use this file for private study, scholarship, or research. #
#Unless specified otherwise, this is NOT an official tab from the band members.#
#------------------------------------------------------------------------------#

  Visit MetalTabs.com for more metal tablature
  
Band:Bewitched
Song:The Devil's Daughters
Album:At The Gates Of Hell

Copyright (c) : OSMOSE Productions 1999

Transcribed by : mitsosxx@hotmail.com

Tuning: Normal (EADGBe)
.  - palm mute           /  - slide up to
\  - slide down to       ~  - vibrato
h  - hammer on           b  - Bend
p  - pull off            Suffixes for bend
t  - tap                 f  - full bend    h - half bend
ah - artificial harmonic q  - quarter bend t - tap bend
*  - see comment         ^  - Hold bend    r release bend
x  - Stuccatto           ~  - vibrato bend
,  - slight palm mute    () - bend to corresponding fret
"  - tremolo note        <> - Trill

info:guess what.... no song structure...but...complete solo this time..
And of course...spacing means shit...listen to the song for timing....
PS: 6 left...more coming up..


Riff 1->00:00
e|--------------------------------------------------------------|
B|--------------------------------------------------------------|
G|--2-----5-----2-----7--75-2-----5-----------5--54-------------|
D|--2-----5-----2-----7--75-2-----5-----5-----5--54-------------|
A|---00000-00000-00000-00----00000-00000500000-00---------------|
E|--------------------------------------------------------------|

Riff 2a->00:19
e|--------------------------------------------------------------|
B|--------------------------------------------------------------|
G|--------------------------------------------------------------|
D|--------------------------------------------------------------|
A|--7-----------5----------10-5--7-----------5---------10--7--9-|
E|--5555...-0-2-3--333...--8--3--5555...-0-2-3-333...--8---5--7-|


Riff 2b->00:39
e|--------------------------------------------------------------|
B|--------------------------------------------------------------|
G|--------------------------------------------------------------|
D|--------------------------------------------------------------|
A|---------109-7-5------------5-107-9-------109-7-5-------------|
E|--777...-8-7-5-3-333-333-...3-8-5-7777...-8-7-5-3-333-333...--|

finish with this
e|--------------------------------------------------------------|
B|--------------------------------------------------------------|
G|--------------------------------------------------------------|
D|--------------------------------------------------------------|
A|----757-------------------------------------------------------|
E|----535-------------------------------------------------------|


Riff 3->00:44
e|--------------------------------------------------------------|
B|--------------------------------------------------------------|
G|--------------------------------------------------------------|
D|-----------------7------------------7----7--------------------|
A|----5-7-99-7-9---5-7-5---------5-5--5-77-5-77-----------------|
E|--0-3-5-77-5-7-----5-3-3-3-3-3-3-3----55---55-----------------|

second time instead of the last A chord finish with this
e|--------------------------------------------------------------|
B|--------------------------------------------------------------|
G|--------------------------------------------------------------|
D|--------------------------------------------------------------|
A|--2-2--4--a.h-------------------------------------------------|
E|--0-0--2--3~--------------------------------------------------|


on the second verse before the rythm change finish with this
e|--------------------------------------------------------------|
B|--------------------------------------------------------------|
G|--------------------------------------------------------------|
D|--------------------------------------------------------------|
A|--22--44--55--77--99------------------------------------------|
E|--00--22--33--55--77------------------------------------------|


Riff 4->02:30 (through the solo)
e|--------------------------------------------------------------|
B|--------------------------------------------------------------|
G|--------------------------------------------------------------|
D|-----------------7-7--7---------------------------------------|
A|--7-99-7-9--99-7-5-5--5-7-99-7-9-999-7--7---------------------|
E|--5-77-5-7--77-5--------5-77-5-7-777-5--5---------------------|


then play the same thing starting from B

solo...

e|--------------------------------------------------------------|
B|-----------------------7-----------------12-------------------|
G|------7-9-9b10r9-7-----9b10r9b10r9b10r9--14b25r14b15r14b15----|
D|--7/9--------------9------------------------------------------|
A|--------------------------------------------------------------|
E|--------------------------------------------------------------|


e|-----------------------------17-14h17p14p12-------------------|
B|-----15-17-15-17/19-19-17-19---------------13-----------------|
G|--16----------------------------------------------------------|
D|--------------------------------------------------------------|
A|--------------------------------------------------------------|
E|--------------------------------------------------------------|

e|--------------------------------------------------------------|
B|--14-13h14p13-------------------------------------------------|
G|--------------16-14-12-11-12-11h12p11-------------------------|
D|--------------------------------------14-12-11----------------|
A|-----------------------------------------------12-12/14~------|
E|--------------------------------------------------------------|

e|--------------------------------------------------------------|
B|----------15-14h15p14-----------------------------------------|
G|-------16-------------16-14-16-16/18-16~----------------------|
D|-----16-------------------------------------------------------|
A|--14----------------------------------------------------------|
E|--------------------------------------------------------------|

e|--------------------------------------------------------------|
B|--15-17b19r17b19r17b19r17b19r17b19r17-15-14~------------------|
G|--------------------------------------------------------------|
D|--------------------------------------------------------------|
A|--------------------------------------------------------------|
E|--------------------------------------------------------------|

e|--------------------------------------------------------------|
B|--15-14h15p14----14-------------------------------------------|
G|--------------16----16-14-12h14p12p11-12-11h12p11-8~----------|
D|--------------------------------------------------------------|
A|--------------------------------------------------------------|
E|--------------------------------------------------------------|

e|--------------------------------------15-14h15p14-------------|
B|-----------------------------------14-------------16-14b16-12~|
G|---/9-8h9p8---------------------13----------------------------|
D|-----------11--9-9/11-11~----11-------------------------------|
A|---{  x3    }-------------------------------------------------|
E|--------------------------------------------------------------|

end...

  Visit MetalTabs.com for more metal tablature

bottom separator

Contact Us | Privacy Policy | Disclaimer | Legal Notice
Copyright © 2001-2014 MetalTabs.com. All Rights Reserved.