top separator

Home

Forum

What's New

Submit a Tab

FAQ

Links

Contact Us

Link to Us

MuSpy.com

MetalTabs.com logo

Bands

0-9

A

B

C

D

E

F

G

H

I

J

K

L

M

N

O

P

Q

R

S

T

U

V

W

X

Y

Z

Search

What

Where
 

Bewitched - "Black Mass" Guitar Tab

Plain Text Version
More Bewitched Tabs

Hits: 2648
Rated: 2.50 out of 5 (2 votes)
Updated: 2004-04-16 11:16:44

 

By:

sendpm.gif

email.gif

Important note
We did our best to reach Bewitched and ask for their permission to publish this tab. Unfortunately they did not respond to our requests or we could not find a way to contact them. This tab is available online until Bewitched tells us to take it down.


#----------------------------------PLEASE NOTE---------------------------------#
#This file is the author's own work and represents their interpretation of the #
#song. You may only use this file for private study, scholarship, or research. #
#Unless specified otherwise, this is NOT an official tab from the band members.#
#------------------------------------------------------------------------------#

  Visit MetalTabs.com for more metal tablature
  
Band:Bewitched
Song:Black Mass
Album:At The Gates Of Hell

Copyright (c) : OSMOSE Productions 1999

Transcribed by : mitsosxx@hotmail.com

Tuning: Normal (EADGBe)
.  - palm mute           /  - slide up to
\  - slide down to       ~  - vibrato
h  - hammer on           b  - Bend
p  - pull off            Suffixes for bend
t  - tap                 f  - full bend    h - half bend
ph - pinched harmonic    q  - quarter bend t - tap bend
*  - see comment         ^  - Hold bend    r release bend
x  - Stuccatto           ~  - vibrato bend
,  - slight palm mute    () - bend to corresponding fret
"  - tremolo note        <> - Trill

info:once again no song structure...as all bewitched songs in
this album it's pretty damn easy to follow it...
And of course...spacing means shit...listen to the song for
timing....
PS:third installment for the "At The Gates Of Hell" album...
more coming up...



Riff 1->0:00
e|--------------------------------------------------------------|
B|--------------------------------------------------------------|
G|--------------------------------------------------------------|
D|--7/9----9-----7/9----9-------9--7--5-----7/9----9------------|
A|--5/7----7-----5/7----7-------7--5--3-----5/7----7------------|
E|------00-----------00-------------------------00--------------|
PM      ..           ..                         ..

Riff 2->0:26 guitar 1
e|--------------------------------------------------------------|
B|--------------------------------------------------------------|
G|--------------------------------------------------------------|
D|--------------------------------------------------------------|
A|--9-9-9-10~---9-9-9-10~---10-9-7~-----------------------------|
E|--------------------------------------------------------------|

Riff 2->0:26 guitar 2
e|--------------------------------------------------------------|
B|--------------------------------------------------------------|
G|--------------------------------------------------------------|
D|--------------------------------------------------------------|
A|--5-5-5-7~----5-5-5-7~-----7-5-3~-----------------------------|
E|--------------------------------------------------------------|

Riff 3->0:39
e|--------------------------------------------------------------|
B|--------------------------------------------------------------|
G|--------------------------------------------------------------|
D|--9-7-5-------5-7-9--------------9-5-5----5-7-44----4----7---9|
A|--7-5-3333...-3-5-7-777-777-777--7-7-3333-3-5-22-22-2-22-5-5-7|
E|--------------------------------------------------------------|
PM       ...          ... ... ...       ...        ..   ..   .

Riff 4->00:53
e|--------------------------------------------------------------|
B|--------------------------------------------------------------|
G|--------------------------------------------------------------|
D|--9-9--9--9-9--9---9-...-12-11-9-7-5-5--5---2-2---4--7-7------|
A|--7-7777--7-7777-7-7-...-10-9--7-5-3-3333-0-0-0-0-2--5-5------|
E|--------------------------------------------------------------|
PM     ..      ..  .                    ..  .     .

Riff 5->01:11
e|--------------------------------------------------------------|
B|--------------------------------------------------------------|
G|--------------------------------------------------------------|
D|--12--11-7--9--------------12--11--9--7-----------------------|
A|--10--9--5--7-777-777-...--10--9---7--5-555-555-...-----------|
E|--{        x2         }---------------------------------------|


for the next part (01:36-..) use the chords from the intro but
the rythm of riff 4....



Riff 6->02:13 guitar 1
e|--------------------------------------------------------------|
B|--8-7-----------10-8-7-7-8-----8-7------------10-8-7----------|
G|------9-7-9-9--------------9-------7-7-9-9-----------7-9-9----|
D|--{    x4   }------------------{    x4   }--------------------|
A|--------------------------------------------------------------|
E|--------------------------------------------------------------|

Riff 6->02:13 guitar 2
e|--------------------------------------------------------------|
B|--1210-------------1312101012----12-10-------------131210----|
G|--------12101212-------------12-------11-11-12-12--------11-12|
D|--{     x4     }-----------------{      x4      }-------------|
A|--------------------------------------------------------------|
E|--------------------------------------------------------------|

Rythm part for melody->
e|--------------------------------------------------------------|
B|--------------------------------------------------------------|
G|--------------------------------------------------------------|
D|--7-/9-----9-9--7-/9-----9-9------4-/5-----5-5--4-/5-----5-5--|
A|--5-/7-7-7-7-7--5-/7-7-7-7-7-...--2-/3-3-3-3-3--2-/3-3-3-3-3..|
E|--------------------------------------------------------------|

end...

  Visit MetalTabs.com for more metal tablature

bottom separator

Contact Us | Privacy Policy | Disclaimer | Legal Notice
Copyright © 2001-2014 MetalTabs.com. All Rights Reserved.