top separator

Home

Forum

What's New

Submit a Tab

FAQ

Links

Contact Us

Link to Us

MetalTabs.com logo

Bands

0-9

A

B

C

D

E

F

G

H

I

J

K

L

M

N

O

P

Q

R

S

T

U

V

W

X

Y

Z

Search

What

Where
 

Bewitched - "Heaven Is Falling" Guitar Tab

Plain Text Version
More Bewitched Tabs

Hits: 2611
Rated: 5.00 out of 5 (1 vote)
Updated: 2004-04-16 11:16:42

 

By:

sendpm.gif

email.gif

Important note
We did our best to reach Bewitched and ask for their permission to publish this tab. Unfortunately they did not respond to our requests or we could not find a way to contact them. This tab is available online until Bewitched tells us to take it down.


#----------------------------------PLEASE NOTE---------------------------------#
#This file is the author's own work and represents their interpretation of the #
#song. You may only use this file for private study, scholarship, or research. #
#Unless specified otherwise, this is NOT an official tab from the band members.#
#------------------------------------------------------------------------------#

  Visit MetalTabs.com for more metal tablature
  
Band:Bewitched
Song:Heaven is Falling
Album:At The Gates Of Hell

Copyright (c) : OSMOSE Productions 1999

Transcribed by : mitsosxx@hotmail.com

Tuning: Normal (EADGBe)
.  - palm mute           /  - slide up to
\  - slide down to       ~  - vibrato
h  - hammer on           b  - Bend
p  - pull off            Suffixes for bend
t  - tap                 f  - full bend    h - half bend
ph - pinched harmonic    q  - quarter bend t - tap bend
*  - see comment         ^  - Hold bend    r release bend
x  - Stuccatto           ~  - vibrato bend
,  - slight palm mute    () - bend to corresponding fret
"  - tremolo note        <> - Trill

info:once again no song structure...no solo this time...
i think it's easy but i'm no good at all that wierd dirty
sounding bending..
And of course...spacing means shit...listen to the song for
timing....
PS:second addition for the "At The Gates Of Hell" album...more
coming up..

Riff 1->0:00 guitar1
e|--------------------------------------------------------------|
B|--------------------------------------------------------------|
G|--------0h2-2-2~----------------------------------------------|
D|--2----------------------------------------2------------------|
A|--0----------------7---5---3---5---2---5---0------------------|
E|-------------------5---3---1---3---0---3----------------------|


Riff 1->0:00 guitar2
e|--------------------------------------------------------------|
B|--------------------------------------------------------------|
G|--------4/5-5-5~----------------------------------------------|
D|--2----------------------------------------2------------------|
A|--0----------------7---5---3---5---2---5---0------------------|
E|-------------------5---3---1---3---0---3----------------------|

Riff 2a->0:11
e|--------------------------------------------------------------|
B|--------------------------------------------------------------|
G|--------------------------------------------------------------|
D|--------------------------------------------------------------|
A|--0-3-0-0-2-0-0-3-0-0-2-0-0-3h5--0-3-0-0-2-0-0-3-0-0-2-0-0-5-5|
E|-----------------------------------------------------------3-3|


Riff 2b
e|--------------------------------------------------------------|
B|--------------------------------------------------------------|
G|--------------------------------------------------------------|
D|--------------------------------------------------------------|
A|--0-3-0-0-2-0-0-3-0-0-2-0-0-3h5--3--5-5-----------------------|
E|---------------------------------1--3-3-----------------------|


Riff 2c
e|--------------------------------------------------------------|
B|--------------------------------------------------------------|
G|--------------------------------------------------------------|
D|--------------------------------------------------------------|
A|--0-3-0-0-2-0-0-3-0-0-2-0-0--5--2--3--------------------------|
E|-----------------------------3--0--1--------------------------|


Riff 3a->00:25
e|--------------------------------------------------------------|
B|--------------------------------------------------------------|
G|--------------------------------------------------------------|
D|--------------------------------------------------------------|
A|--3---------3p2----5---------5p3p0--7-------------------------|
E|--111111111-----5--333333333--------5-------------------------|
PM   ........         ........


Riff 2d->00:29
e|--------------------------------------------------------------|
B|--------------------------------------------------------------|
G|--------------------------------------------------------------|
D|--------------------------------------------------------------|
A|--0-3-0-0-2-0-0-3-0-0-2-0-0--3-----5-----2--------------------|
E|-----------------------------1-----3-----0--------------------|


Riff3b(verse)->00:35
e|--------------------------------------------------------------|
B|--------------------------------------------------------------|
G|--------------------------------------------------------------|
D|-2------------------------------------------------------------|
A|-00000..-5-0-3-0-0-2-0-0-3-0-0-2-0-0--same as riffs 2b,2c-----|
E|---------3----------------------------------------------------|
PM  ......

Riff 3c->00:50
e|--------------------------------------------------------------|
B|--------------------------------------------------------------|
G|--------------------------------------------------------------|
D|--------------------------------------------------------------|
A|--3---------3p2----5---------3p2----2----------33333--555555--|
E|--111111111-----5--333333333-----5--000000000--11111--333333--|
PM   ........         ........         ........

refrain riff same as riff 1
last time play->
e|--------------------------------------------------------------|
B|--------------------------------------------------------------|
G|--------0h2-2-2~----------------------------------------------|
D|--2-----------------------------------------------------------|
A|--0----------------7---5---3---5---2---5---3------------------|
E|-------------------5---3---1---3---0---3---1------------------|


Riff 4->02:34
(not sure about this one, and of course these are 2s not 22s)
e|--------------------------------------------------------------|
B|--------------------------------------------------------------|
G|--22---22---2-----55---44---4---5-4-2-------------------------|
D|--22---22---2-----22---22---2---2-2-2-------------------------|
A|-----0----0---0-0----0----0---0-------------------------------|
E|--------------------------------------------------------------|
PM     ,    ,   , ,         ,   ,

OR it could be this one or a variation of the two
e|--------------------------------------------------------------|
B|--------------------------------------------------------------|
G|--22---22---2-----55---44---4---5-4-2-------------------------|
D|--22---22---2-----55---44---4---5-4-2-------------------------|
A|-----0----0---0-0----0----0---0-------------------------------|
E|--------------------------------------------------------------|
PM     ,    ,   , ,         ,   ,

Fill->03:06 guitar1
e|--------------------------------------------------------------|
B|--------------------------------------------------------------|
G|--11-11-9-7-6-7-6-4-2----11-11-12-11-9------------------------|
D|--------------------------------------------------------------|
A|--------------------------------------------------------------|
E|--------------------------------------------------------------|

e|--------------------------------------------------------------|
B|--------------------------------------------------------------|
G|--11-11-9-7-6-7-6-4-2----11-11-12-12/14-14-----14-12-10-------|
D|------------------------------------------------added---------|
A|----------------------------------------------last time-------|
E|--------------------------------------------------------------|

Fill->03:06 guitar2 copies an octave higher
e|--14-14-12-10-9-10-9-7-5-----14-14-15-14-12-------------------|
B|--------------------------------------------------------------|
G|--------------------------------------------------------------|
D|--------------------------------------------------------------|
A|--------------------------------------------------------------|
E|--------------------------------------------------------------|

e|--14-14-12-10-9-10-9-7-5-----14-14-15-15/17-17---17-15-13-----|
B|--------------------------------------------------added-------|
G|------------------------------------------------last time-----|
D|--------------------------------------------------------------|
A|--------------------------------------------------------------|
E|--------------------------------------------------------------|

Rythm part for fill
e|--------------------------------------------------------------|
B|--------------------------------------------------------------|
G|--------------------------------------------------------------|
D|--4-------7-------2-------------------------------------------|
A|--2222...-5555...-0000...-------------------------------------|
E|--------------------------------------------------------------|
PM   ...     ...     ...

small change in 03:17
e|--------------------------------------------------------------|
B|--------------------------------------------------------------|
G|--------------------------------------------------------------|
D|--4------4-6-7-------2----------------------------------------|
A|--2222...2-4-5555...-0000...----------------------------------|
E|--------------------------------------------------------------|
PM   ...        ...     ...

solo rythm

e|--------------------------------------------------------------|
B|--------------------------------------------------------------|
G|--------------------------------------------------------------|
D|--------------------------------------------------------------|
A|--6------6676------7-----4--------last time instead of: --9---|
E|--4444...4454444...5555..2222...---the last chord play: --7---|

end...

  Visit MetalTabs.com for more metal tablature

bottom separator

Contact Us | Privacy Policy | Disclaimer | Legal Notice
Copyright © 2001-2014 MetalTabs.com. All Rights Reserved.