top separator

Home

Forum

What's New

Submit a Tab

FAQ

Links

Contact Us

Link to Us

MetalTabs.com logo

Bands

0-9

A

B

C

D

E

F

G

H

I

J

K

L

M

N

O

P

Q

R

S

T

U

V

W

X

Y

Z

Search

What

Where
 

Holocaust (UK) - "The Small Hours" Guitar Tab

Plain Text Version
More Holocaust (UK) Tabs

Hits: 3952
Rated: 5.00 out of 5 (4 votes)
Updated: 2004-04-15 04:25:52

 

By:

Agent-Orange

sendpm.gif

email.gif

Important note
We did our best to reach Holocaust (UK) and ask for their permission to publish this tab. Unfortunately they did not respond to our requests or we could not find a way to contact them. This tab is available online until Holocaust (UK) tells us to take it down.


#----------------------------------PLEASE NOTE---------------------------------#
#This file is the author's own work and represents their interpretation of the #
#song. You may only use this file for private study, scholarship, or research. #
#Unless specified otherwise, this is NOT an official tab from the band members.#
#------------------------------------------------------------------------------#

  Visit MetalTabs.com for more metal tablature
  
Band:Holocaust
Album:Hypnosis Of Birds
Song:The Small Hour

Tough timing listen to song
INTRO:
Fades in, not sure how many times. Riff2
e-|---0-------0---------0-----|   |----------|
B-|-------6--------6---------6|   |----------|
G-|-8---8---8----8---8----8---|   |----------|
D-|---------------------------|   |----------|
A-|---------------------------|   |-6-5--4-1-|
E-|---------------------------|   |-4-3--2-3-|

Main Riff x2
e-|-----------------------| |----------|
B-|-----------------------| |----------|
G-|-----------------------| |----------|
D-|-----------------------| |----------|
A-|-2-2--4/5\4/5--2-2--5--| |-5-4--4-1-|
E-|-0-0--2/3\2/3--0-0--3--| |-3-2--2-3-|

Main riff with verse x4

Riff5 with verse x1
e-|----------------------|
B-|----------------------|
G-|----------------------|
D-|----------------------|
A-|-7--------5-----4---3-|
E-|-5--------3-----2---1-|

Main Riff with verse x6
riff5 with verse x1
main Riff x2

Chorus riff x3
e-|-------------------------------------|
B-|-------------------------------------|
G-|-------------------------------------|
D-|---------------0---------------------|
A-|-----2---0--2----------2--0--2--0----|
E-|-0-0-0-----------------------------3-|

e-|------------------------------------------|
B-|------------------------------------------|
G-|------------------------------------------|
D-|----------------0-------------2-----2h3p2-|
A-|-----2----0--2----------2--0--------------|
E-|-0-0-0------------------------------------|

Main riff x3
Riff2 x1
Main Riff verse x4
Riff5 x1
Main Riff x6
riff5 with verse x1
main Riff x2
Chorus riff x2

         Riff 6 x3 Played with Intro
e-|---| |---------------|
B-|---| |---------------|
G-|---| |---------------|
D-|---| |---------------|
A-|-5-| |----3----5-4-3-|
E-|-5-| |----3----3-2-1-|

Rythem before the Solo x4
e-|-------------------------------------------------------|
B-|-------------------------------------------------------|
G-|-------------------------------------------------------|
D-|-------------------------------------------------------|
A-|----------------------------------------6-----------8--|
E-|-0--0-0-0---0-0-0---0-0-0---0-0-0---0-0-6----0--0-0-8--|

e-|------------------------------------------------------------|
B-|------------------------------------------------------------|
G-|------------------------------------------------------------|
D-|------------------------------------------------------------|
A-|----------------------------------------6-------------------|
E-|-0--0-0-0---0-0-0---0-0-0---0-0-0---0-0-6-------0--6--5--3--|

Rythem for solo
e-|-------------------------------------------------------|
B-|-------------------------------------------------------|
G-|-------------------------------------------------------|
D-|-------------------------------------------------------|
A-|-------------------------------------------------------|
E-|-0---0-0-0----0-0-0----0-0-0-----6-6-6---5-5-5---3-3-3-|

After the solo play this
e-|-------------------------------------------------------------|
B-|-------------------------------------------------------------|
G-|-------------------------------------------------------------|
D-|-------------------------------------------------------------|
A-|----------------------------------------------6------------8-|
E-|-0--0-0-0---0-0-0-----0-0-0-----0-0-0-----0-0-6-----0--0-0-8-|

E-|-------------------------------------------------------------|
B-|-------------------------------------------------------------|
G-|-------------------------------------------------------------|
D-|-------------------------------------------------------------|
A-|----------------------------------------------7------------9-|
E-|-0--0-0-0---0-0-0-----0-0-0-----0-0-0-----0-0-7-----0--0-0-9-|

E-|--------------------------------------------------------------|
B-|--------------------------------------------------------------|
G-|--------------------------------------------------------------|
D-|--------------------------------------------------------------|
A-|----------------------------------------------8------------10-|
E-|-0--0-0-0---0-0-0-----0-0-0-----0-0-0-----0-0-8-----0--0-0-10-|

Main riff x3
Riff2 x1
Main Riff verse x4
Riff5 x1
Main Riff x6
riff5 with verse x1
main Riff x2
Chorus riff x2


Tabbed by Agent-Orange
First Atempt at tabbing.

  Visit MetalTabs.com for more metal tablature

bottom separator

Contact Us | Privacy Policy | Disclaimer | Legal Notice
Copyright © 2001-2014 MetalTabs.com. All Rights Reserved.