top separator

Home

Forum

What's New

Submit a Tab

FAQ

Links

Contact Us

Link to Us

MuSpy.com

MetalTabs.com logo

Bands

0-9

A

B

C

D

E

F

G

H

I

J

K

L

M

N

O

P

Q

R

S

T

U

V

W

X

Y

Z

Search

What

Where
 

Summoning - "Through The Forest Of Dol Guldur" Guitar Tab

Plain Text Version
More Summoning Tabs

Hits: 6624
Rated: 4.00 out of 5 (4 votes)
Updated: 2004-04-12 08:51:15

 

By:

Darkenelf

sendpm.gif

email.gif

Important note
This tab is available online because we obtained explicit permission from Summoning or their label.


#----------------------------------PLEASE NOTE---------------------------------#
#This file is the author's own work and represents their interpretation of the #
#song. You may only use this file for private study, scholarship, or research. #
#Unless specified otherwise, this is NOT an official tab from the band members.#
#------------------------------------------------------------------------------#

  Visit MetalTabs.com for more metal tablature
  
Band: Summoning
Album: Minas Morgul
Song: Through the Forest of Dol-Guldur
Tabbed by: Martijn Wietsma (Darkenelf)
Tab Date: 12-04-2004
Email: northerland@yahoo.co.uk
Version 1.0

Standard E Tuning

riff A
|-------------------------------------------------------------|
|-------------------------------------------------------------|
|-------------------------3---------1/4-3---------------------|
|-----8---------9-------4---4---3~----------------------------|
|-6-9---9---6-9---9---4---------------------------------------|
|-------------------------------------------------------------|
                                                        (4x)
riff B (0:49)
|-------------------------------------------------------------|
|-------------------------------------------------------------|
|-------3----------------------------1------------------------|
|-1-1-1----------6---44444444--1-3-4--------------------------|
|----------4-4-4----------------------------------------------|
|-------------------------------------------------------------|
                                                        (2x)
(1:18)
repeat riff A 4x

(1:48) keyboard riff

riff C (2:04) (Acoustic part)
|-------------------------------------------------------------|
|-------------------------------------------------------------|
|-------------------------------------------------------------|
|---8-6-----6-------------------------------------------------|
|-6-----9-8---8-----6-8-9--8-6--8p6-8h---8-9-6--6h8h9-8-6h---6|
|---------------9----------------------9-------------------9--|
                                                        (4x)
riff D (keyboard)

(3:20)
repeat riff A 8x (till end of song)

  Visit MetalTabs.com for more metal tablature

bottom separator

Contact Us | Privacy Policy | Disclaimer | Legal Notice
Copyright © 2001-2014 MetalTabs.com. All Rights Reserved.