top separator

Home

Forum

What's New

Submit a Tab

FAQ

Links

Contact Us

Link to Us

MuSpy.com

MetalTabs.com logo

Bands

0-9

A

B

C

D

E

F

G

H

I

J

K

L

M

N

O

P

Q

R

S

T

U

V

W

X

Y

Z

Search

What

Where
 

Summoning - "Marching Homewards" Guitar Tab

Plain Text Version
More Summoning Tabs

Hits: 5482
Rated: 3.33 out of 5 (3 votes)
Updated: 2004-04-12 08:51:14

 

By:

Darkenelf

sendpm.gif

email.gif

Important note
This tab is available online because we obtained explicit permission from Summoning or their label.


#----------------------------------PLEASE NOTE---------------------------------#
#This file is the author's own work and represents their interpretation of the #
#song. You may only use this file for private study, scholarship, or research. #
#Unless specified otherwise, this is NOT an official tab from the band members.#
#------------------------------------------------------------------------------#

  Visit MetalTabs.com for more metal tablature
  
Band: Summoning
Album: Minas Morgul
Song: Marching Homewards
Tabbed by: Martijn Wietsma (Darkenelf)
Tab Date: 12-04-2004
Email: northerland@yahoo.co.uk
Version 1.0

Standard E Tuning

riff A
|--------5--3-6----5--3-6--5-3-5------------------------------|
|-6-3--6---------6---------------6-3--6-5---3-----------------|
|-----------------------------------------5-------------------|
|-------------------------------------------------------------|
|-------------------------------------------------------------|
|-------------------------------------------------------------|
                                                        (4x)
riff B (1:10)
|--------5--3-6--10-----3-6--5-3-5----------------------------|
|-6-3--6------------10-------------6-3--6-5---3---------------|
|-------------------------------------------5-----------------|
|-------------------------------------------------------------|
|-------------------------------------------------------------|
|-------------------------------------------------------------|
                                                        (4x)
riff C (2:20)
|---8~----7h8~--------3---------------------------------------|
|-6-----5-------3-5-6---6-5-3-5-------------------------------|
|-------------------------------------------------------------|
|-------------------------------------------------------------|
|-------------------------------------------------------------|
|-------------------------------------------------------------|
                                                        (8x)
(3:30)
repeat riff A 4x

(4:41)
repeat riff B 4x

(5:53)
repeat riff C 8x

(7:02) keyboard riff

riff D (7:15)
|-------------------------------------------------------------|
|-------------------------------------------------------------|
|-----------------------2222------2222------2-3-2-------------|
|-5555------5555------5------3333------3333-------3-----------|
|------5555------5555-----------------------------------------|
|-------------------------------------------------------------|
                                                        (3x)

|-------------------------------------------------------------|
|-------------------------------------------------------------|
|-----------------------2222------2222------2-3-2-------------|
|-5555------5555------5------3333------3333-------3-5---------|
|------5555------5555-----------------------------------------|
|-------------------------------------------------------------|
                                                        (1x)

  Visit MetalTabs.com for more metal tablature

bottom separator

Contact Us | Privacy Policy | Disclaimer | Legal Notice
Copyright © 2001-2014 MetalTabs.com. All Rights Reserved.