top separator

Home

Forum

What's New

Submit a Tab

FAQ

Links

Contact Us

Link to Us

MuSpy.com

MetalTabs.com logo

Bands

0-9

A

B

C

D

E

F

G

H

I

J

K

L

M

N

O

P

Q

R

S

T

U

V

W

X

Y

Z

Search

What

Where
 

Summoning - "Morthond" Guitar Tab

Plain Text Version
More Summoning Tabs

Hits: 5009
Rated: 4.00 out of 5 (1 vote)
Updated: 2004-04-12 08:51:11

 

By:

Darkenelf

sendpm.gif

email.gif

Important note
This tab is available online because we obtained explicit permission from Summoning or their label.


#----------------------------------PLEASE NOTE---------------------------------#
#This file is the author's own work and represents their interpretation of the #
#song. You may only use this file for private study, scholarship, or research. #
#Unless specified otherwise, this is NOT an official tab from the band members.#
#------------------------------------------------------------------------------#

  Visit MetalTabs.com for more metal tablature
  
Band: Summoning
Album: Minas Morgul
Song: Morthond
Tabbed by: Martijn Wietsma (Darkenelf)
Tab Date: 12-04-2004
Email: northerland@yahoo.co.uk
Version 1.0

Standard E Tuning

riff A (keyboard)
|-6~-----------------6~---------------------------------------|
|----7~-6~--------------7~-6~---------------------------------|
|----------6~-----------------6~------------------------------|
|-------------------------------------------------------------|
|-------------------------------------------------------------|
|-------------------------------------------------------------|

riff B (keyboard) (missing)

riff C (1:21)
|-------------------------------------------------------------|
|-------------------------------------------------------------|
|-3----------------------------3------------------------------|
|---4---3h4p3---3~--4p3h4-6------4---3h4p3---3~--4p3h4-6------|
|-------------6----------------------------6------------------|
|-------------------------------------------------------------|
                                                        (2x)
riff D (1:52)
|-------------------------------------------------------------|
|-------------------------------------------------------------|
|-3333---------------------3333-------------------------------|
|------4444-6666-4p3h4-6--------4444-6666-4p3h4-6-------------|
|-------------------------------------------------------------|
|-------------------------------------------------------------|
                                                        (2x)
(2:26)
repeat riff C 4x

(2:59)
repeat riff A 1x
repeat riff B (keyboard)

(4:17)
repeat riff C 4x

(4:51)
repeat riff D 4x

(6:00)
repeat riff A 1x
repeat riff B (keyboard)

  Visit MetalTabs.com for more metal tablature

bottom separator

Contact Us | Privacy Policy | Disclaimer | Legal Notice
Copyright © 2001-2014 MetalTabs.com. All Rights Reserved.