top separator

Home

Forum

What's New

Submit a Tab

FAQ

Links

Contact Us

Link to Us

MuSpy.com

MetalTabs.com logo

Bands

0-9

A

B

C

D

E

F

G

H

I

J

K

L

M

N

O

P

Q

R

S

T

U

V

W

X

Y

Z

Search

What

Where
 

Summoning - "Lugburz" Guitar Tab

Plain Text Version
More Summoning Tabs

Hits: 5679
Rated: 4.00 out of 5 (1 vote)
Updated: 2004-04-12 08:51:08

 

By:

Darkenelf

sendpm.gif

email.gif

Important note
This tab is available online because we obtained explicit permission from Summoning or their label.


#----------------------------------PLEASE NOTE---------------------------------#
#This file is the author's own work and represents their interpretation of the #
#song. You may only use this file for private study, scholarship, or research. #
#Unless specified otherwise, this is NOT an official tab from the band members.#
#------------------------------------------------------------------------------#

  Visit MetalTabs.com for more metal tablature
  
Band: Summoning
Album: Minas Morgul
Song: Lugburz
Tabbed by: Martijn Wietsma (Darkenelf)
Tab Date: 12-04-2004
Email: northerland@yahoo.co.uk
Version 1.0

Standard E Tuning

riff A
|-------------------------------------------------------------|
|-------------------------------------------------------------|
|-33333333----------44444444---3333333------------------------|
|----------66666666----------4--------------------------------|
|-------------------------------------------------------------|
|-------------------------------------------------------------|

riff B
|-------------------------------------------------------------|
|-------------------------------------------------------------|
|-4----------3-----------3333---------------------------------|
|---6666666----4444444-4--------------------------------------|
|-------------------------------------------------------------|
|-------------------------------------------------------------|

repeat riff A+B 4x

riff C (0:54)
|-------------------------------------------------------------|
|-------------------------------------------4-2---------------|
|----------8-6h8-6----4---3----4----------4-----4-------------|
|-8-6h8-6-----------4---4--------6666666----------------------|
|-------------------------------------------------------------|
|-------------------------------------------------------------|
                                                        (4x)
riff D (2:40)
|-------------------------------------------------------------|
|-------------------------------------------------------------|
|-------------------------------------------------------------|
|-88888888-6-88888888-10-10-8-8-11-11-11-11-10-10-8-8---------|
|-66666666-4-66666666--8--8-6-6--9--9--9--9--8--8-6-6---------|
|-------------------------------------------------------------|

|-------------------------------------------------------------|
|-------------------------------------------------------------|
|-------------------------------------------------------------|
|-8-8-6-6-8-8-8-8-6----------6--------------------------------|
|-------------------9-9-9-9----9p8----------------------------|
|-------------------------------------------------------------|
                                                        (4x)
(3:32)
repeat riff A+B 4x

(4:27)
repeat riff C 8x (play riff A under last 4 riffs of C)

(6:11)
repeat riff D 4x

  Visit MetalTabs.com for more metal tablature

bottom separator

Contact Us | Privacy Policy | Disclaimer | Legal Notice
Copyright © 2001-2014 MetalTabs.com. All Rights Reserved.