top separator

Home

Forum

What's New

Submit a Tab

FAQ

Links

Contact Us

Link to Us

MetalTabs.com logo

Bands

0-9

A

B

C

D

E

F

G

H

I

J

K

L

M

N

O

P

Q

R

S

T

U

V

W

X

Y

Z

Search

What

Where
 

...And Oceans - "Fragile: Pictures Of Silence: Melting The Skies" Guitar Tab

Plain Text Version
More ...And Oceans Tabs

Hits: 6010
Rated: 5.00 out of 5 (1 vote)
Updated: 2004-04-12 06:55:02

 

By:

The Dimmu Monk

sendpm.gif

email.gif

Important note
This tab is available online because we obtained explicit permission from ...And Oceans or their label.


#----------------------------------PLEASE NOTE---------------------------------#
#This file is the author's own work and represents their interpretation of the #
#song. You may only use this file for private study, scholarship, or research. #
#Unless specified otherwise, this is NOT an official tab from the band members.#
#------------------------------------------------------------------------------#

  Visit MetalTabs.com for more metal tablature
  
Band: ...And Oceans
Album: Cypher
Song: Fragile: Pictures Of Silence: Melting The Skies
Copyright © Century Media 2002

Tabbed by : The Dimmu Monk



Press and release: p (take off the pressure as soon as you played the note,if
you let it ring, it just won’t sound the same)

Tunning: Tune it down to B



Riff 1 (Killer riff!!)

|-------------------------------------------------------------------|
|-------------------------------------------------------------------|
|-------------------------------------------------------------------|
|---9---9---9---9---9---9---9-------9---9---9---9---9---9-5-5-6-6---|
|---7---7---7---7---7---7---7---8---7---7---7---7---7---7-3-3-6-6---|
|-0---0---0---0---0---0---0---6---0---0---0---0---0---0---3-3-4-4---|

    p   p   p   p   p   p   p       p   p   p   p   p   p

(Easy to play but harder to make it sound right)



Riff 2

|---------------------------------|
|---------------------------------|
|---------------------------------|
|-----9---9-9---9---101010106-6-6-|
|-----7---7-7---7---8-8-8-8-4-4-4-|
|-0-0-0-0-----0---0-8-8-8-8-4-4-4-|

      P   P P   P



Riff 3
|----------------------------------|
|----------------------------------|
|-----5-4-5-4-------4---5---4-5-7--|
|-----3-2-3-2---0---2---3---2-3-5--|
|-----3-2-3-2---0---2---3---2-3-5--|
|-0-------------0---0--------------|

|----------------------------------|
|----------------------------------|
|-----5-4-5-4-------4---5---4-5----|
|-----3-2-3-2---0---2---3---2-3-0--|
|-----3-2-3-2---0---2---3---2-3-0--|
|-0-------------0---0--------------|



Riff 1 alt

|-------------------------------------------------------------------|
|-------------------------------------------------------------------|
|-------------------------------------------------------------------|
|---9---9---9---9---9---9---9---9---9---9---9---9---9---9-5-5-6-6-2-|
|---7---7---7---7---7---7---7---7---7---7---7---7---7---7-3-3-6-6-2-|
|-0---0---0---0---0---0---0---0---0---0---0---0---0---0---3-3-4-4-0-|

    p   p   p   p   p   p   p       p   p   p   p   p   p         p



Order:

Intro:Riff 1 x2
Pause
Riff 1 x 2
Riff 2 x 4
Riff 1 x 4
Riff 2 x 8
Riff 3 x 2
Riff 2 x 4
Riff 3 x 2
Riff 1 alt x 1
Pause
Riff 2 x 8
Riff 1 alt x 1

  Visit MetalTabs.com for more metal tablature

bottom separator

Contact Us | Privacy Policy | Disclaimer | Legal Notice
Copyright © 2001-2014 MetalTabs.com. All Rights Reserved.