top separator

Home

Forum

What's New

Submit a Tab

FAQ

Links

Contact Us

Link to Us

MetalTabs.com logo

Bands

0-9

A

B

C

D

E

F

G

H

I

J

K

L

M

N

O

P

Q

R

S

T

U

V

W

X

Y

Z

Search

What

Where
 

Saprogenic - "The Wet Sound of Flesh on Concrete" Guitar Tab

Plain Text Version
More Saprogenic Tabs

Hits: 2688
Rated: 2.00 out of 5 (1 vote)
Updated: 2004-04-12 04:56:25

 

By:

raperofchickens

sendpm.gif

email.gif

Important note
This tab is available online because we obtained explicit permission from Saprogenic or their label.


#----------------------------------PLEASE NOTE---------------------------------#
#This file is the author's own work and represents their interpretation of the #
#song. You may only use this file for private study, scholarship, or research. #
#Unless specified otherwise, this is NOT an official tab from the band members.#
#------------------------------------------------------------------------------#

  Visit MetalTabs.com for more metal tablature
  
Saprogenic
The Wet Sound Of Flesh On Concrete

Tuning: B-E-A-D-F#-B (Not sure on high strings)

" = Tremlo Picking
^ = Bend

Intro                                                              2x
|-------------------------------------------------------------=--|
|----------------------------------------------------------------|
|----------------------------------------------------------------|
|----------------------------------------------------------------|
|-7--0-0--8-8--7-7-7---0-0--8-8--7-7-7---0-0--8-8--7-7-7--2-2-2--|
|---------------------------------------------------------0-0-0--|
                                                        Pm|. . .|
                                                                 2x
|----------------------------------------------------------------------|
|----------------------------------------------------------------------|
|----------------------------------------------------------------------|
|-9--0-0--10-10--9-9-9---0-0--10-10--9-9-9---0-0--9-9--10-10-10--------|
|----------------------------------------------------------------2-2-2-|
|----------------------------------------------------------------0-0-0-|
                                                              Pm|. . .|

Repeat all ^


             Repeat many times...
|-------------------------------|
|-------------------------------|
|-------------------------------|
|-------------------------------|
|-5-3---2-2--3---2-3-2--5-3-2-3-|
|-3-1---0-0--1---0-1-0--3-1-0-1-|
      Pm. .    pm. . .  . . . .

Listen for timing, repeated many times.
|-------------------------|
|-------------------------|
|-------------------------|
|-------------------------|
|-------------------------|
|-0"-----5"---1"---3"--0"-|

Once after ^
|---------------|
|---------------|
|---------------|
|---------------|
|-2---5-4--5-3--|
|-0---3-2--3-1--|

Repeat intro then...


Ending/Outro  repeat ending 4x or so.
|---------------------------------|
|---------------------------------|
|------10--10---------------------|
|-------x---x---------------------|
|-2-x---8-x-8---2-2-2--2--2-2-2-2-|
|-0-x-----x-----0-0-0--0--0-0-0-0-|
             Pm|. . .  .  . . . .|

|------------------------------|
|------------------------------|
|------10--10--------------7^--|
|-------x---x------------------|
|-2-x---8-x-8---2-2-2--2-------|
|-0-x-----x-----0-0-0--0-------|
             Pm|. . .  .|

  Visit MetalTabs.com for more metal tablature

bottom separator

Contact Us | Privacy Policy | Disclaimer | Legal Notice
Copyright © 2001-2014 MetalTabs.com. All Rights Reserved.