top separator

Home

Forum

What's New

Submit a Tab

FAQ

Links

Contact Us

Link to Us

MetalTabs.com logo

Bands

0-9

A

B

C

D

E

F

G

H

I

J

K

L

M

N

O

P

Q

R

S

T

U

V

W

X

Y

Z

Search

What

Where
 

Control Denied - "Consumed" Guitar Tab

Plain Text Version
More Control Denied Tabs

Hits: 4903
Rated: 4.00 out of 5 (1 vote)
Updated: 2004-04-12 04:54:02

 

By:

sendpm.gif

email.gif

Important note
We did our best to reach Control Denied and ask for their permission to publish this tab. Unfortunately they did not respond to our requests or we could not find a way to contact them. This tab is available online until Control Denied tells us to take it down.


#----------------------------------PLEASE NOTE---------------------------------#
#This file is the author's own work and represents their interpretation of the #
#song. You may only use this file for private study, scholarship, or research. #
#Unless specified otherwise, this is NOT an official tab from the band members.#
#------------------------------------------------------------------------------#

  Visit MetalTabs.com for more metal tablature
  
CONTROL DENIED - CONSUMED
From the Album THE FRAGILE ART OF EXISTENCE

Transcribed by Eric Wilsevich (e.w1@shaw.ca)

Email me if you have any questions, comments or if there are any errors.


Tuning = D (D,G,C,F,A,D)

Intro

|---7-----7-8-7-------|----------------|----------------|-----------------|
|----------------8--7-|----------------|----------------|-----------------|
|---------------------|--8-----------8-|--9-------10--9-|--7-----6--6-----|
|---------------------|----------------|----------------|-----------------|
|---------------------|----------------|----------------|-----------------|
|---------------------|----------------|----------------|-----------------|
|                      |                |                |                 |
|                      |                |                |                 |
|--12-----------12-19-|-19-------19-17-|-17-------17-15-|-15----14-14-----|
|---------------------|----------------|----------------|-----------------|
|---------------------|----------------|----------------|-----------------|
|---------------------|----------------|----------------|-----------------|
|---------------------|----------------|----------------|-----------------|
|---------------------|----------------|----------------|-----------------|


Fill 1

|---------------------|---------------------|
|---------------------|---------------------|
|---------------------|---------------------|
|---------------------|---------------------|
|---------------------|---------------------|
|-3333-3333-3333-3333-|-3333-3333-3333-3333-|



Riff 1

|---------------------|---------------------|---------------------|
|---------------------|---------------------|---------------------|
|---------------------|---------------------|---------------------|Gtr. 1
|---------------------|---------------------|---------------------|
|---------------------|-5555-5555-5555-5555-|---------------------|
|-3333-3333-3333-3333-|---------------------|-1111-1111-1111-1111-|
|                     |                     |                     |
|                     |                     |                     |
|------6---------5----|------8---------6----|------6---------5----|
|------6---------6----|------6---------4----|------6---------6----|
|---------------------|---------------------|---------------------|Gtr. 2
|---------------------|---------------------|---------------------|
|---------------------|---------------------|---------------------|
|---------------------|---------------------|---------------------|


|---------------------|---------------------|---------------------|
|---------------------|---------------------|---------------------|
|---------------------|---------------------|---------------------|Gtr. 1
|---------------------|---------------------|---------------------|
|-3333-3333-3333-3333-|-1111-1111-1111-1111-|---------------------|
|---------------------|---------------------|-1111-1111-1111-1111-|
|                     |                     |                     |
|                     |                     |                     |
|-----10---------8----|------6---------5----|------8---------6----|
|------8---------6----|------6---------6----|------6---------4----|
|---------------------|---------------------|---------------------|Gtr. 2
|---------------------|---------------------|---------------------|
|---------------------|---------------------|---------------------|
|---------------------|---------------------|---------------------|


|---------------------|---------------------|
|---------------------|---------------------|
|---------------------|---------------------|Gtr. 1
|---------------------|---------------------|
|---------------------|-5555-5555-5555-5555-|
|-3333-3333-3333-3333-|---------------------|
|                     |                     |
|                     |                     |
|------6---------5----|------10--------8----|
|------6---------6----|-------8--------6----|
|---------------------|---------------------|Gtr. 2
|---------------------|---------------------|
|---------------------|---------------------|
|---------------------|---------------------|


Riff 2

|---------------------|---------------------|----------------|---------------|
|---------------------|---------------------|----------------|---------------|
|---------------------|---------------------|----------------|---------------|
|---------------------|---------------------|---12------13---|---12-----13---|
|---------------------|---------------------|---10------11---|---10-----11---|
|-0000-0000-0000-0000-|-0000-0000-0000-0000-|-0-10----0-11---|-0-10---0-11---|



Riff 3

|----------|----------|----------|----------|
|----------|----------|----------|----------|
|----------|-3--------|----------|----------|
|-2--------|-3--------|-3--------|-6--------|
|-2--------|-1--------|-3--------|-6--------|
|-0--------|----------|-1--------|-4--------|



Riff 4A

|---------------|-----------------|-----------------|---------------|
|---------------|-----------------|-----------------|---------------|
|---------------|-----------------|-----------------|---------------|
|------7------9-|------10------12-|------12------10-|------9------6-|
|-0000---0000---|-0000----0000----|-0000----0000----|-0000---0000---|
|---------------|-----------------|-----------------|---------------|


Riff 4B

|---------------|-----------------|-----------------|---------------|
|---------------|-----------------|-----------------|---------------|
|---------------|-----------------|-----------------|---------------|Gtr. 1
|------7------9-|------10------12-|------12------10-|------9------6-|
|-0000---0000---|-0000----0000----|-0000----0000----|-0000---0000---|
|---------------|-----------------|-----------------|---------------|
|               |                 |                 |               |
|---------------|-----------------|-----------------|---------------|
|---------------|-----------------|-----------------|---------------|
|---------------|-----------------|-----------------|---------------|Gtr. 2
|---------------|-----------------|-----------------|---------------|
|---------------|-----------------|-----------------|---------------|
|-5-------------|-7---------------|-8---------------|-10------------|



Riff 5A

|------------------|------------------|-----------------|------------|
|------------------|------------------|-----------------|------------|
|------------------|------------------|-----------------|------------|
|-----7-7-10-10-9--|-----7-7-10-9-10--|-----7-7-10-10-9-|------------|
|-0-0--------------|-0-0--------------|-0-0-------------|------------|
|------------------|------------------|-----------------|------------|


|------------------|------------------|-----------------|------------|
|------------------|------------------|-----------------|------------|
|------------------|------------------|-----------------|------------|
|-----7-7-10-10-9--|-----7-7-10-10-6--|-----7-7-10-10-7-|------------|
|-0-0--------------|-0-0--------------|-0-0-------------|------------|
|------------------|------------------|-----------------|------------|


Riff 5B

|------------------|------------------|------------------|------------|
|------------------|------------------|------------------|------------|
|------------------|------------------|------------------|------------|Gtr.1
|-----7-7-10-10-9--|-----7-7-10-9-10--|-----7-7-10-10-9--|------------|
|-0-0--------------|-0-0--------------|-0-0--------------|------------|
|------------------|------------------|------------------|------------|
|                  |                  |                  |            |
|------------------|------------------|------------------|------------|
|------------------|------------------|------------------|------------|
|-----9-9-12-12-11-|-----9-9-12-11-12-|-----9-9-12-12-11-|------------|Gtr. 2
|------------------|------------------|------------------|------------|
|-0-0--------------|-0-0--------------|-0-0--------------|------------|
|------------------|------------------|------------------|------------|


|------------------|------------------|-----------------|------------|
|------------------|------------------|-----------------|------------|
|------------------|------------------|-----------------|------------|Gtr. 1
|-----7-7-10-10-9--|-----7-7-10-10-6--|-----7-7-10-10-7-|------------|
|-0-0--------------|-0-0--------------|-0-0-------------|------------|
|------------------|------------------|-----------------|------------|
|                  |                  |                 |            |
|------------------|------------------|-----------------|------------|
|------------------|------------------|-----------------|------------|
|-----9-9-12-12-11-|-----9-9-12-12-8--|-----9-9-12-12-9-|------------|Gtr. 2
|------------------|------------------|-----------------|------------|
|-0-0--------------|-0-0--------------|-0-0-------------|------------|
|------------------|------------------|-----------------|------------|



Riff 6A

|----------------|--------------|-------------------|-------------|
|----------------|--------------|-------------------|-------------|
|--------7-------|-------10--9--|-----------9-------|-------------|
|-7-9-10---10-9--|----7---------|-10-7-9-10---10-9--|-------5--3--|
|----------------|-0------------|-------------------|----3--------|
|----------------|--------------|-------------------|-1-----------|


|----------------|------------|--------------|
|---------3------|------------|--------------|
|---2-4-5---5-4--|------------|--------------|
|-2--------------|-9----10----|-7----12--10--|
|----------------|-7-----8----|-5----10---8--|
|----------------|------------|--------------|

Riff 6B

|-------------|-------------------|--------------|-------------------|
|-------------|-------------------|--------------|-------------------|
|-------9-----|-----------7-------|-------10--9--|-----------9-------|
|----7-----7--|-10-7-9-10---10-9--|----7---------|-10-7-9-10---10-9--|
|-0-----------|-------------------|-0------------|-------------------|
|-------------|-------------------|--------------|-------------------|


|-------------|----------------|------------|--------------|
|-------------|---------3------|------------|--------------|
|-------------|---2-4-5---5-4--|------------|--------------|
|-------5--3--|-2--------------|-9----10----|-7----12--10--|
|----3--------|----------------|-7-----8----|-5----10---8--|
|-1-----------|----------------|------------|--------------|


Song Progression

Intro - play 3x
Fill 1 - play 1x
Riff 1 - Play 3x
Riff 2 - play 4x
Riff 3 - play 2x (1x with solo and 1x with singing)
Riff 4A - play 1x
Riff 4B - play 3x
Riff 5A - play 1x
Riff 5B - play 2x
Riff 6A - play 1x
Riff 6B - play 3x
Fill 1 - play 1x
Riff 1 - Play 3x
Riff 2 - play 4x
Riff 3 - play 2x (1x with solo and 1x with singing)
Riff 4A - play 1x
Riff 4B - play 3x
Riff 4B - fades out with solo

  Visit MetalTabs.com for more metal tablature

bottom separator

Contact Us | Privacy Policy | Disclaimer | Legal Notice
Copyright © 2001-2014 MetalTabs.com. All Rights Reserved.