top separator

Home

Forum

What's New

Submit a Tab

FAQ

Links

Contact Us

Link to Us

MetalTabs.com logo

Bands

0-9

A

B

C

D

E

F

G

H

I

J

K

L

M

N

O

P

Q

R

S

T

U

V

W

X

Y

Z

Search

What

Where
 

Immortal - "Beyond the North Waves" Guitar Tab

Plain Text Version
More Immortal Tabs

Hits: 11705
Rated: 4.23 out of 5 (13 votes)
Updated: 2004-04-12 04:53:42

 

By:

sendpm.gif

email.gif

Important note
We did our best to reach Immortal and ask for their permission to publish this tab. Unfortunately they did not respond to our requests or we could not find a way to contact them. This tab is available online until Immortal tells us to take it down.


#----------------------------------PLEASE NOTE---------------------------------#
#This file is the author's own work and represents their interpretation of the #
#song. You may only use this file for private study, scholarship, or research. #
#Unless specified otherwise, this is NOT an official tab from the band members.#
#------------------------------------------------------------------------------#

  Visit MetalTabs.com for more metal tablature
  
Band: Immortal
Song: Beyond The North Waves

Tune the guitar 1 whole step down.
You’ll have to figure out how many times you’re going to play the
riff yourself. It’s a kickass Immortal song. To bad they broke up.
Hail Immortal!!!!

Intro: (clean)
|-------------------------------------------------------|
|--8h10~---8h10~---6h8p6p5~---8h10~---8h10~---6h8p6p5~--|
|--7-------7-------7----------7-------7-------7---------|
|--0-------0-------0----------0-------0-------0---------|
|-------------------------------------------------------|
|-------------------------------------------------------|


|---------------10—-7~-------------------11—-7~---------|
|--3~---8h10~---10—-9~---11~---8-8h10~---11—-9~---11~---|
|--7~---7-------7---7~---7~------7-------7---7~---7~----|
|--0~---0-------0---0~---0~------0-------0---0~---0~----|
|-------------------------------------------------------|
|-------------------------------------------------------|


|------------------10—-7~-----------------------|
|--8h10~---8h10~---10—-9~---11~-----------------|
|--7-------7-------7---7~---7~------------------|
|--0-------0-------0---0~---0~------------------|
|-----------------------------------------------|
|-----------------------------------------------|

Verse: Riff 1
|-----------------------------------------------|
|-----------------------------------------------|
|---7--7-7-7-7—-7p5--5--------------------------|
|---7--7-7-7-7—-7p5--5--------------------------|
|---5--5-5-5-5--5----5--------------------------|
|-----------------------------------------------|

Verse: Riff 2
|-----------------------------------------------|
|-----------------------------------------------|
|---10-10-10-10-10-10-10-10-9-9-9-9-9-9-9-9-9---|
|---8--8--8--8--8--8--8--8--7-7-7-7-7-7-7-7-7---|
|---8--8--8--8--8--8--8--8--7-7-7-7-7-7-7-7-7---|
|-----------------------------------------------|

Verse: Riff 3 (not sure)
|------------------------------------------------|
|------------------------------------------------|
|----------------------5--------5----------------|
|---3---------3--------5--------5----------------|
|---3---------3--------3--3-3-3-3--3-3-3---------|
|---1--1-1-1--1--1-1-1---------------------------|

Verse: Ending
|------------------5-----------------------------|
|----------------5-------------------------------|
|---7----------7---------------------------------|
|---7--------7-----------------------------------|
|---5------5-------------------------------------|
|--------5---------------------------------------|




Chorus:
|--------------------------------------------------------|
|--------------------------------------------------------|
|--------------------------------------------------------|
|--------5-5-5-5-5-5-5-5-5-5-5-5-5-5-5-5-5-5-5-5-5-5-5---|
|-----2--7-7-7-7-7-7-7-7-7-7-7-7-7-7-7-7-7-7-7-7-7-7-7---|
|---0----------------------------------------------------|


|--------------------------------------------------------|
|--------------------------------------------------------|
|--------------------------------------------------------|
|-------6-6-6-6-6-6-6-6-6-6-6-6-6-6-6-6-6-6-6-6-6-6-6-6--|
|--2-2--7-7-7-7-7-7-7-7-7-7-7-7-7-7-7-7-7-7-7-7-7-7-7-7--|
|--0-0---------------------------------------------------|

|--------------------------------------------------------|
|--------------------------------------------------------|
|--------------------------------------------------------|
|--------5-5-5-5-5-5-5-5-5-5-5-5-5-5-5-5-5-5-5-5-5-5-5---|
|-----2--7-7-7-7-7-7-7-7-7-7-7-7-7-7-7-7-7-7-7-7-7-7-7---|
|---0----------------------------------------------------|


|--------------------------------------------------------|
|--------------------------------------------------------|
|--------------------------------------------------------|
|-------6-6-6-6-6-6-6-6-7-7-7-6-6-6-5-5-5-7-7-6-6-5-5-5--|
|--2-2--7-7-7-7-7-7-7-7-7-7-7-7-7-7-5-5-5-7-7-7-7-5-5-5--|
|--0-0---------------------------------------------------|

After chorus:
|-----------------------------------------------|
|-----------------------------------------------|
|-----------------------------------------------|
|---5-5-5-5-5-5-5-5-5-5-5-5-5-5-5-5-------x3----|
|-----------------------------------------------|
|-----------------------------------------------|


|-----------------------------------------------|
|-----------------------------------------------|
|-----------------------------------------------|
|---5-5-5-5-5-5-5-5-7-7-7-7-8-8-8-8-------------|
|-----------------------------------------------|
|-----------------------------------------------|


|-----------------------------------------------|
|-----------------------------------------------|
|-----------------------------------------------|
|---5-5-5-5-5-5-5-5-5-5-5-5-5-5-5-5-----x2------|
|-----------------------------------------------|
|-----------------------------------------------|

|-----------------------------------------------|
|-----------------------------------------------|
|-----------------------------------------------|
|---6-6-6-6-6-6-6-6-6-6-6-6-6-6-6-6-------------|
|-----------------------------------------------|
|-----------------------------------------------|



|------------------------------------------------|
|------------------------------------------------|
|------------------------------------------------|
|---5-5-5-5-5-5-5-5-5-5-5-5-5-5-5-5-5------------|
|------------------------------------------------|
|------------------------------------------------|

Interlude:
|------------------------------------------------|
|--------------8-----6-----4---------------------|
|--5/7--7--7-----7-----5-----5-------------------|
|--5/7--7--7-------7-----5-----5-----------------|
|--3/5--5--5-------------------------------------|
|------------------------------------------------|

Then it is some solo thing I can’t figure out. Enjoy!

  Visit MetalTabs.com for more metal tablature

bottom separator

Contact Us | Privacy Policy | Disclaimer | Legal Notice
Copyright © 2001-2014 MetalTabs.com. All Rights Reserved.