top separator

Home

Forum

What's New

Submit a Tab

FAQ

Links

Contact Us

Link to Us

MetalTabs.com logo

Bands

0-9

A

B

C

D

E

F

G

H

I

J

K

L

M

N

O

P

Q

R

S

T

U

V

W

X

Y

Z

Search

What

Where
 

Nile - "Immortality Through Art/Godless" Guitar Tab

Plain Text Version
More Nile Tabs

Hits: 4941
Rated: 3.67 out of 5 (3 votes)
Updated: 2004-04-10 15:42:28

 

By:

Father Death

sendpm.gif

email.gif

Important note
This tab is available online because we obtained explicit permission from Nile or their label.


#----------------------------------PLEASE NOTE---------------------------------#
#This file is the author's own work and represents their interpretation of the #
#song. You may only use this file for private study, scholarship, or research. #
#Unless specified otherwise, this is NOT an official tab from the band members.#
#------------------------------------------------------------------------------#

  Visit MetalTabs.com for more metal tablature
  
Band:  NILE
Song:  Immortality Through Art/Godless
Album: In The Beginning

Transcribed by: Chris Humeniuk
Email:  father_death_666@hotmail.com

Tuning:
strings 1-5 - 2.5 steps down
string    6 - 3.5 steps down

Keys:
 { } - Natural Harmonic
 / \ - slide
  p  - pull off
 ___ - palm mute
  "  - tremelo pick
  h  - hammer on
  x  - mute
  b  - bend
  r  - release bend


INTRO:

Note - sounds like the intro is played using finger picking on a classical
       guitar...since i can't tune my classical down this low a had to figure
       it out on my electric...the first part may be a little off but the last
       half is perfect.

|------------------------------------------------------5---------------------
|------------------15------------------------------------3-------------------
|---------------13----13--------------18-------------2-----2-----------13----
|-------{12}-15----------15--/14---17---------------0---------/11--11--------
|----{12}--------------------/14-------------------0----------/11------------
|-{12}-----------------------/14------------------0-----------/11------------

 ---------------------------------------------3-------------1------
 ---------------------------10-9------------3---3---------3--------
 ----14--13--9--8---------7----6--9--8------------2-----2----------
 ----12--11--7--6------0----------7--6--1-1-----------0------------
 ----12--11--7--6------0----------------1-----------0--------------
 ----12------7--6------0----------------1-----------0--------------

 -------------------------------------------------------------------------
 -9/10--10/15-14---11--------9/10--10/15-14-11--/17-17----------16--------
 -6/-7---7/12-11--8----------6/-7---7/12-11--8--/14-14-------12-----------
 -----------------------0---------------------------------11--------------
 -----------------------0---------------------------------11--------------
 -----------------------0-------------------------------0--0--------------

 -------10p8------------------------------------------------8-----------8-----
 -----8--------------10-----------8-----------10----------8---8-------8---8---
 ------------------9----9-7-----8---8-------9-----------8-------8---8-------8-
 ---6------------7------------6-------6---7-----------------------------------
 -----------------------------------------------------------------------------
 -6------------0------------6-----------0-------------6-----------5-----------

 -------8-----------6-------------8----------10----------10------------10-----|
 -----8---8-------8-------------8---8------------10----------10-----10--------|
 ---8-------8-----7-------------8-----8---10---------10----------10-----------|
 ---------------5--------------------------8----------8---------0-------------|
 -----------------------------6---------0-----------------------0-------------|
 -3-----------5-------------6-----------------------------------0-------------|


RIFF A:

|-------------------------------------------
|-------------------------------------------
|-------------------------------------------
|-0----1--4--3--------0--0--1--4------------
|-0----1--4--3--------0--0--1--4------------
|-0----1--4--3--------0--0--1--4--3-4-4/7-6-

 ---------------------------------------------------|
 ---------------------------------------------------|
 ---------6--5--------------------------------------|
 -0----1--4--3--------0--0--1--4--------------------|
 -0----1--4--3--------0--0--1--4--------------------|
 -0----1--4--3--------0--0--1--4--3-4-4/7-6-/10--9--|


RIFF Ba:
(Gtr 1)
|-----------------------------------------------------------------------|
|-----------------------------------------------------------------------|
|-----------------------------------------------------------------------|
|-----------------------------------------------------------4-3-4-7-6-6-|
|-----------------------------------------------------------4-3-4-7-6-6-|
|-0"---3"4"0"---6"-0"------4"--3"--0"---3"4"0"---6"-0"------4-3-4-7-6-6-|
  _________________________________________________________

(Gtr 2)
|-----------------------------------------------------------------------|
|-----------------------------------------------------------------------|
|-----------------------------------------------------------------------|
|-0------------------------4-4-3-3-0----3-4-0---------------4-3-4-7-6-6-|
|-0------------------------4-4-3-3-0----3-4-0---------------4-3-4-7-6-6-|
|-0------------------------4-4-3-3-0----3-4-0---------------4-3-4-7-6-6-|

(Gtr 1 & 2)
|-----------------------------------------------------------------------|
|-----------------------------------------------------------------------|
|-------------------------------------------------------{4}-------------|
|-------------------------------------------------------{4}-4-3-4-7-6-6-|
|-------------------------------------------------------{4}-4-3-4-7-6-6-|
|-0"---3"4"0"---6"-0"------4"--3"--0"---3"4"0"---6"-0"--{4}-4-3-4-7-6-6-| 2x
  ______________________________________________________

|--------------|
|--------------|
|--------------|
|-10-9-7-6-6-6-|
|-10-9-7-6-6-6-|
|-10-9-7-6-6-6-|


RIFF C:

|--------------------------------------------------
|--------------------------------------------------
|--------------------------------------------------
|-------4"-3"-------4"-3"-------4"-3"-7"-6"-10"-9"-
|-6"-5"-------6"-5"-------6"-5"--------------------
|--------------------------------------------------

 ------------------------------------------------------------|
 -----------------------------------------------/16--16--16\-|
 -------------------------------------9--10--9--/15--15--15\-|
 -------4"-3"-------4"-3"-------4"-3"-7---8--7--/13--13--13\-|
 -6"-5"-------6"-5"-------6"-5"-------7---8--7---------------|
 -------------------------------------7---8--7---------------|


RIFF Bb:

|-----------------------------------------------------------------------
|-----------------------------------------------------------------------
|-------------------------------------------------------{4}-------------
|-------------------------------------------------------{4}-4-3-4-7-6-6-
|-------------------------------------------------------{4}-4-3-4-7-6-6-
|-0"---3"4"0"---6"-0"------4"--3"--0"---3"4"0"---6"-0"--{4}-4-3-4-7-6-6-
  ______________________________________________________

 -----------------------------------------------------------------------
 -----------------------------------------------------------------------
 -------------------------------------------------------{4}-------------
 -------------------------------------------------------{4}-4-3-4-7-6-7-
 -------------------------------------------------------{4}-4-3-4-7-6-7-
 -0"---3"4"0"---6"-0"------4"--3"--0"---3"4"0"---6"-0"--{4}-4-3-4-7-6-7-
  ______________________________________________________

 --------------|
 --------------|
 --------------|
 -10-9-7-6-6-6-|
 -10-9-7-6-6-6-|
 -10-9-7-6-6-6-|


RIFF D:

|----------------------------------------------------|
|----------------------------------------------------|
|----------------------------------------------------|
|-7-----8"-10"-7-----8"-10"-7-----8"-10"-7-----8"-10-|
|-5-----6"--8"-5-----6"--8"-5-----6"--8"-5-----6"--8-|
|---0"-----------0"-----------0"-----------0"--------|
    ___          ___          ___          ___


RIFF E:

|-------------------------------------------------------------
|-------------------------------------------------------------
|-------------------------------------------------------------
|-------------------------------------------------------------
|-5"----------5"----------5"----------------------------------
|----8"-7"-6"----8"-7"-6"----8"-7"-6"-0"----1"----4"----3"----
                                      _______________________

 -------------------------------------------------------------|
 -------------------------------------------------------------|
 -------------------------------------------------------------|
 -------------------------------------0-----1-----4-----3--3--|
 -5"----------5"----------5"----------0-----1-----4-----3--3--|
 ----8"-7"-6"----8"-7"-6"----8"-7"-6"-0-0-0-1-1-1-4-4-4-3--3--| 2x
                                        ___   ___   ___


RIFF F:

|------------------------------------------------
|------------------------------------------------
|------7----8~-------7----8~-------7----8----12~-
|------5----6~-------5----6~-------5----6----10~-
|------------------------------------------------
|-0000---00-----0000---00-----0000---00---00-----
  ____   __     ____   __     ____   __   __

 ---------------------------------------------------------------------------
 -------------------------------------------------------------11----10------
 ------7----8~-------7----8~-------7----8----12-11-8-11-12-11-10-----9--6-5-
 ------5----6~-------5----6~-------5----6----10--9-6--9-10--9-8------7--4-3-
 --------------------------------------------10--9-6--9-10--9-8------7--4-3-
 -0000---00-----0000---00-----0000---00---00-10--9-6--9-10--9-8------7--4-3-
  ____   __     ____   __     ____   __   __

 -------------------------------------------------------------------------|
 -------------------------------------------------------------------------|
 -------------------------------------------------------------------------|
 -1-0------3-4-4/8--7h8--7h8-4---3-1-0--------1--4--3--1------------------|
 -1-0------3-4-4/8--7h8--7h8-4---3-1-0--------1--4--3--1------------------|
 -1-0------3-4-4/8--7h8--7h8-4---3-1-0--------1--4--3--1--0-1-4-3-3/7--6--|


RIFF G:

|-----------------------------------------------------------------------------
|-----------------------------------------------------------------------------
|-7----/8-8---------------------------7----/8-8-------------------------------
|-x-------x-------5--/6-6----------p0-x-------x-------5--/6-6--\5-5--\4-4--p0-
|-5----/6-6----p0-x-----x-------------5----/6-6----p0-x-----x-----x-----x-----
|-----------------5--/6-6-----------------------------5--/6-6--\5-5--\4-4-----

 -----------------------------------------------------------------------------
 -----------------------------------------------------------------------------
 -7----/8-8---------------------------7----/8-8-------------------------------
 -x-------x-------5--/6-6----------p0-x-------x-------5--/6-6--\5-5--\4-4--/7-
 -5----/6-6----p0-x-----x-------------5----/6-6----p0-x-----x-----x-----x-----
 -----------------5--/6-6-----------------------------5--/6-6--\5-5--\4-4--/7-

 -----------------------------------------------------------------------------|
 -----------------------------------------------------------------------------|
 -----------------------------------------------------------------------------|
 -7----/10-10----/13-13--\12-12--\10-10--/13-13--\12-12--\10-10--\4-4----/7br-|
 -x---------x---------x-------x-------x-------x-------x-------x-----x---------|
 -7----/10-10----/13-13--\12-12--\10-10--/13-13--\12-12--\10-10--\4-4---------|


RIFF H:

|-------------------------------------------------------------
|-------------------------------------------------------------
|-------------------------------------------------------------
|-0------4p3-1p0-4p3---7p6p0-1--0------4p3-----0h1-3/4\3p0-1--
|-0------4p3-1p0-4p3---7p6p0-1--0------4p3-----0h1-3/4\3p0-1--
|-0--0-0-4p3-1p0-4p3-0-7p6p0-1--0--0-0-4p3-1-0-0h1-3/4\3p0-1--
     ___             _             ___________

 --------------------------------------------------------------
 --------------------------------------------------------------
 --------------------------------------------------------------
 -0--------------4p3---7p6p0-1--0------4p3-----6/7\6----8-7-6--
 -0--0-0-4-3-1-0-4p3---7p6p0-1--0------4p3-----4/5\4----8-7-6--
 -0--0-0-4-3-1-0-4p3-0-7p6p0-1--0--0-0-4p3-1-0--------0-8-7-6--
     ___________     _             ___     ___        _

 -------------------------------------------------------------
 -------------------------------------------------------------
 -------------------------------------------------------------
 -0------4p3-1p0-4p3---7p6p0-1--0------4p3-----0h1-3/4\3p0-1--
 -0------4p3-1p0-4p3---7p6p0-1--0------4p3-----0h1-3/4\3p0-1--
 -0--0-0-4p3-1p0-4p3-0-7p6p0-1--0--0-0-4p3-1-0-0h1-3/4\3p0-1--
     ___             _             ___     ___

 -------------------------------------------------------------------------|
 --------------------------------------------------------------------9----|
 --------------------------------------------------------------12----8----|
 -0------4p3-----4p3---7p6p0-1--0------4p3-----6/7\6----8-7-6--10----6--3-|
 -0------4p3-----4p3---7p6p0-1--0------4p3-----4/5\4----8-7-6--10----6--3-|
 -0--0-0-4p3-1-0-4p3-0-7p6p0-1--0--0-0-4p3-1-0--------0-8-7-6--10----6--3-|
     ___     ___     _             ___     ___        _


OUTRO:

Note - can't quite get this right, but its close

|---------------------------------------------------------------
|---------------------------------------------------------------
|----------------------7-7-7\------------------------7-7----8-8-
|----------------------x-x-x----------------------xx-x-x-xx-x-x-
|----------------------5-5-5\---------------------55-5-5-66-6-6-
|-4-3-0--3-5-3--3-6-5---------5-7-5--5-4-3--3-6-5---------------
  ___________________         ______________________     __

 -----------------------------------------------------------------------------
 -----------------------------------------------------------------------------
 ----------------------7-7-7\------------------------7-7----8-8----7-7----8-8-
 ----------------------x-x-x----------------------xx-x-x-xx-x-x-xx-x-x-xx-x-x-
 ----------------------5-5-5\---------------------55-5-5-66-6-6-55-5-5-66-6-6-
 -4-3-0--3-5-3--3-6-5---------4-3-0--3-5-3--3-6-5-----------------------------
  ___________________         ______________________     __     __     __

 -----------------------------|
 -----------------------------|
 ----7-7----8-8----7-7----8-8-|
 -xx-x-x-xx-x-x-xx-x-x-xx-x-x-|
 -55-5-5-66-6-6-55-5-5-66-6-6-|
 -----------------------------|
  __     __     __     __

  Visit MetalTabs.com for more metal tablature

bottom separator

Contact Us | Privacy Policy | Disclaimer | Legal Notice
Copyright © 2001-2014 MetalTabs.com. All Rights Reserved.