top separator

Home

Forum

What's New

Submit a Tab

FAQ

Links

Contact Us

Link to Us

MuSpy.com

MetalTabs.com logo

Bands

0-9

A

B

C

D

E

F

G

H

I

J

K

L

M

N

O

P

Q

R

S

T

U

V

W

X

Y

Z

Search

What

Where
 

Aurora Borealis - "Images in the Nightsky" Guitar Tab

Plain Text Version
More Aurora Borealis Tabs

Hits: 3657
Rated: 4.20 out of 5 (5 votes)
Updated: 2004-04-10 15:41:59

 

By:

MorbidGuitar

sendpm.gif

email.gif

Important note
This tab is available online because we obtained explicit permission from Aurora Borealis or their label.


#----------------------------------PLEASE NOTE---------------------------------#
#This file is the author's own work and represents their interpretation of the #
#song. You may only use this file for private study, scholarship, or research. #
#Unless specified otherwise, this is NOT an official tab from the band members.#
#------------------------------------------------------------------------------#

  Visit MetalTabs.com for more metal tablature
  
AURORA BOREALIS - IMAGES IN THE NIGHT SKY
ALBUM: NORTHERN LIGHTS
TABBED BY GUITARENVY GUITARENVY@HOTMAIL.COM
DO NOT COPY FROM METALTABS.COM WITHOUT PERMISSION
BAND WEBSITE:WWW.AROURABOREALIS.ORG

IM NOT SURE OF THE TUNING THEY USE
BUT I TABBED IT IN Bb IF I REMEMBER
CORRECTLY. LISTEN TO THE SONG FOR
THE EXACT TIMING.

x=palm mute

----------------------------------
----------------------------------
-----66------66------99------99---
-4477--774477--770077--770077--77-
----------------------------------
----------------------------------

----------------------------------|
----------------------------------|
----------------------------------|
---776677----66------55----665566-|
-44------4477--773366--6633-------|
----------------------------------| x4



CHORUS
---------------------------------
---------------------------------
---------------------------------
-----55----665566----55----665566
-3366--6633------3366--6633------
---------------------------------

----------------------------------
----------------------------------
----------------------------------
-----55----665566-----55----665566
-4466--6644-------4466--6644------
----------------------------------

---------------------------------
---------------------------------
---------------------------------
-----55----665566----55----665566
-3366--6633------3366--6633------
---------------------------------

---------------------------------|
---------------------------------|
---------------------------------|
-----55----665566----55----665566|
-2266--6633------2266--6633------|
---------------------------------|



FILL

---------------------------------|
-88888888777755778888888877775555|
-88888888777755778888888877775555|
-66666666555533556666666655553333|
-66666666555533556666666655553333|
---------------------------------| X2

(10,11,12,13's)
---------------------------------|
-13131313121211121313131312121111|
-13131313121211121313131312121111|
-111111111010 910111111111010 9 9|
-111111111010 910111111111010 9 9|
---------------------------------| X2




VERSE 2
----------------------------------
----------------------------------
-----66------66------99------99---
-4477--774477--770077--770077--77-
----------------------------------
----------------------------------

----------------------------------|
----------------------------------|
----------------------------------|
---776677----66------55----665566-|
-44------4477--773366--6633-------|
----------------------------------| x2




(this part might need some fixing
it hard to pick out the exact chords)
---------------------------------
---------------------------------
---------------------------------
-----------------777777777777 777
-444444444444 444555555555555 555
-444444444444 444000000000000 000
  xxx xxx xxx xxx xxx xxx xxx xxx

---------------------------------
---------------------------------
---------------------------------
-666666666666 666555555555555 555
-444444444444 444333333333333 333
-000000000000 000----------------
  xxx xxx xxx xxx xxx xxx xxx xxx

---------------------------------
---------------------------------
---------------------------------
--7776666 6665555 5554444 4443333
--5554444 4443333 3332222 2221111
--000----------------------------
      xxx     xxx     xxx     xxx

---------------------------------|
---------------------------------|
---------------------------------|
---------------------------------|
-666 6666 6665555 5554444 4443333|
-666 6666 6665555 5554444 4443333|
      xxx     xxx     xxx     xxx|
Screams "the end of time.........."



FILL 2

--------------------------------
--------------------------------
--------------------------------
-----555-----555-----444-----444
-3333333 3333333 2222222 2222222
--------------------------------

----------------------------------|
----------------------------------|
----------------------------------|
---------------------444-----444--|
-----666 ----666 2222222 222222202|
-6666666-6666666 -----------------| X2


(AT 2:22)
---------------------------------
---------------------------------
-5~------4~--2~----------2~--4~--
-5~------4~--0~--6~------0~--4~--
-3~------2~--0~--6~------0~--2~--
-----------------6~--------------

---------------------------------|
---------------------------------|
-5~------4~--2~----------2~--4~--|
-5~------4~--0~--8~------0~--4~--|
-3~------2~--0~--8~------0~--2~--|
-----------------6~--------------|
(repeat during solo also)

FILL

---------------------------------|
-88888888777755778888888877775555|
-88888888777755778888888877775555|
-66666666555533556666666655553333|
-66666666555533556666666655553333|
---------------------------------| X2

(10,11,12,13's)
---------------------------------|
-13131313121211121313131312121111|
-13131313121211121313131312121111|
-111111111010 910111111111010 9 9|
-111111111010 910111111111010 9 9|
---------------------------------| X2

Song Fades Out......
---------------------------------
---------------------------------
---------------------------------
-----------------777777777777 777
-444444444444 444555555555555 555
-444444444444 444000000000000 000
  xxx xxx xxx xxx xxx xxx xxx xxx

---------------------------------
---------------------------------
---------------------------------
-666666666666 666555555555555 555
-444444444444 444333333333333 333
-000000000000 000----------------
  xxx xxx xxx xxx xxx xxx xxx xxx

  Visit MetalTabs.com for more metal tablature

bottom separator

Contact Us | Privacy Policy | Disclaimer | Legal Notice
Copyright © 2001-2014 MetalTabs.com. All Rights Reserved.