top separator

Home

Forum

What's New

Submit a Tab

FAQ

Links

Contact Us

Link to Us

MuSpy.com

MetalTabs.com logo

Bands

0-9

A

B

C

D

E

F

G

H

I

J

K

L

M

N

O

P

Q

R

S

T

U

V

W

X

Y

Z

Search

What

Where
 

Abyssos - "Lord of the Somber Reborn" Guitar Tab

Plain Text Version
More Abyssos Tabs

Hits: 3187
Rated: 5.00 out of 5 (2 votes)
Updated: 2004-04-09 04:16:55

 

By:

sendpm.gif

email.gif

Important note
We did our best to reach Abyssos and ask for their permission to publish this tab. Unfortunately they did not respond to our requests or we could not find a way to contact them. This tab is available online until Abyssos tells us to take it down.


#----------------------------------PLEASE NOTE---------------------------------#
#This file is the author's own work and represents their interpretation of the #
#song. You may only use this file for private study, scholarship, or research. #
#Unless specified otherwise, this is NOT an official tab from the band members.#
#------------------------------------------------------------------------------#

  Visit MetalTabs.com for more metal tablature
  
Abyssos

Song: Lord of the Sombre Reborn
Album: Together We Summon The Dark.

Transcribed by Samuel Earp. (Samuel_earp@hotmail.com) Guernsey, Channel Islands.


Tuning: E

 Riff A: Play twice
 Guitar 1. Strum this very fast
|--------------------------------|----------------------------------|
|--------------------------------|----------------------------------|
|------------7-------------------|------------5---------------------|
|----7-----------8---7-----------|----5-----------6---5---3h5-------|
|5-------8---------------8---5---|3-------6---------------------6---|
|--------------------------------|----------------------------------|
|                                 |                                    |
|Guitar 2                               |                                    |
|--------------------------------|----------------------------------|
|--------------------------------|----------------------------------|
|--------------------------------|----------------------------------|
|--------------------------------|----------------------------------|
|55555555555555555555555555555555|3333333333333333333333333333333333|
|--------------------------------|----------------------------------|
 Hail to thee                     O Earth and Sea

 Guitar 1.
|--------------------------------|--------------------------------|
|--------------------------------|--------------------------------|
|------------7-------------------|----------------5---7-----------|
|----7-----------8---7-----------|----8---7---8-------------------|
|5-------8---------------8---5---|--------------------------------|
|--------------------------------|6-----------------------5---8---|
|                                 |                                  |
|Guitar 2                               |                                  |
|--------------------------------|--------------------------------|
|--------------------------------|--------------------------------|
|--------------------------------|--------------------------------|
|--------------------------------|--------------------------------|
|55555555555555555555555555555555|--------------------5555--------|
|--------------------------------|66666666666666668888----55558888|
 From the depths of the flames    I hear them calling thy names...


 Riff B
|--------------------------------|--------------------------------|
|--------------------------------|--------------------------------|
|--------------------------------|--------------------------------|
|77777788888855777777333333223355|77777788888855777777333333223322|
|55555566666633555555111111001133|55555566666633555555111111001100|
|--------------------------------|--------------------------------|


Riff C
Guitar 1
|-------------------------------|-----------10-8----------------|
|8-----10-11-10-8---------------|8----10-11------10-------------|
|-----------------10---7---10---|-------------------------10--7-|
|-------------------------------|-------------------------------|
|-------------------------------|-------------------------------|
|-------------------------------|-------------------------------|
|                                |                                |
|Guitar 2                        |                                |
|-------------------------------|-------------------------------|
|-------------------------------|-------------------------------|
|-------------------------------|-------------------------------|
|-------------------------------|----------------777777777777532|
|5555555555555555533333333333333|5555555555555555555555555555310|
|3333333333333333311111111111111|3333333333333333---------------|

 Guitar 1
|-------------------------------|-----------10-8----------------|
|8-----10-11-10-8---------------|8----10-11------10-------------|
|-----------------10---7---10---|-------------------------10----|
|-------------------------------|-------------------------------|
|-------------------------------|-------------------------------|
|-------------------------------|-------------------------------|
|                                |                                |
|Guitar 2                        |                                |
|-------------------------------|-------------------------------|
|-------------------------------|-------------------------------|
|-------------------------------|-------------------------------|
|-------------------------------|----------------777777777777532|
|5555555555555555533333333333333|5555555555555555555555555555310|
|3333333333333333311111111111111|3333333333333333---------------|



Riff D: Play 4 times
Note: When this riff is played the fourth time the last power chord
is not played.
|-----------------------|
|-----------------------|
|-----------------------|
|-----------------------|
|77777773333333666444666|
|55555551111111444222444|

Play the following:

Riff C
Riff A x2

 Riff E: Play 4 times
 Guitar 1: Strum this very fast
|------------------------|--------------------------|
|------------------------|--------------------------|
|------------------------|--------------------------|
|----7-------------------|----9---------------------|
|5-------8-------7-------|7-------10-------10---9---|
|------------5-------8---|-------------7------------|
|                         |                            |
|Guitar 2                 |                            |
|------------------------|--------------------------|
|------------------------|--------------------------|
|------------------------|--------------------------|
|------------------------|--------------------------|
|555555555555------------|7777777777777-------------|
|------------555555555555|-------------7777777777777|
 It’s the night that never ends.......


Break: Keyboards, Woman says ‘O come forth, feel my lifeless body’


Play Riff E 4 times again.


|---------|---------||
|---------|---------||
|-------9-|-------9-||
|7-9-10---|7-9-10---||
|---------|---------||
|---------|---------||


 Riff F: play twice
 Guitar 1: Strum this very fast
|-----------------------------|--------------------------------|
|-----------------------------|--------------------------------|
|--------2------4------5------|----2---4---5---4---2---4-------|
|----2------------------------|----------------------------5---|
|0----------------------------|1-------------------------------|
|-----------------------------|--------------------------------|
|                              |                                       |
|Guitar 2                      |                                       |
|-----------------------------|--------------------------------|
|-----------------------------|--------------------------------|
|-----------------------------|--------------------------------|
|-----------------------------|----000022223333222200002222----|
|00000000000000000000000000000|1111------------------------3333|
|-----------------------------|--------------------------------|


 Riff G: play twice
 Guitar 1: Strum this very fast
|----------------0---------------|--------------------------------|
|------------------------1-------|--------------------------------|
|--------2-----------------------|----2---4---5---4---2---4-------|
|----2-------2-------2-------2---|----------------------------5---|
|0-------------------------------|1-------------------------------|
|--------------------------------|--------------------------------|
|                                 |                                  |
|Guitar 2                         |                                  |
|--------------------------------|--------------------------------|
|--------------------------------|--------------------------------|
|--------------------------------|--------------------------------|
|--------------------------------|----000022223333222200002222----|
|00000000000000000000000000000000|1111------------------------3333|
|--------------------------------|--------------------------------|


 Riff H: play 4 times.
 Guitar 1: Strum this very fast
|----------------|----------------|----------------|----------------|
|----------------|----------------|----------------|----------------|
|--------5---4---|----2---4---5---|--------4-------|----------------|
|----2-----------|----------------|----2-------5---|----4---0---2---|
|----------------|----------------|3---------------|5---------------|
|0---------------|1---------------|----------------|----------------|
|                |                |                |                |
|Guitar 2        |                |                |                |
|----------------|----------------|----------------|----------------|
|----------------|----------------|----------------|----------------|
|----------------|----------------|----------------|----------------|
|----------------|----------------|5555555555555555|7777777777777777|
|----------------|----------------|3333333333333333|5555555555555555|
|0000000000000000|1111111111111111|----------------|----------------|
 Come my whores.......

|----||
|----||
|-4--||
|-2--||
|----||
|----||


 Riff I: Let Ring. Play 4 times
|----------------|----------------|----------------|----------------|
|----------------|----------------|----------------|----------------|
|--------0-------|----------------|--------0-------|----------------|
|----2-------2---|--------4-------|----2-------2---|--------4-------|
|----------------|----5-------5---|----------------|----5-------5---|
|0---------------|0---------------|0---------------|0---------------|
 Take my hand......

|----------------|----------------|----------------|---------------|
|----------------|----------------|----------------|---------------|
|--------0-------|--------0-------|--------0-------|---------------|
|----2-------2---|----4-------4---|----2-------2---|----0---4---0--|
|3---------------|2---------------|3---------------|2--------------|
|----------------|----------------|----------------|---------------|


 Riff J: play 4 times.
 Guitar 1: Strum this very fast
|----------------|----------------|----------------|----------------|
|----------------|----------------|----------------|----------------|
|----------------|----------------|----------------|----------------|
|----------------|--------7-------|----------------|----------------|
|7------10---7---|----9-------9---|----7---10--7---|--------7---9---|
|----------------|10--------------|8---------------|7---10----------|
|                |                |                |                |
|Guitar 2        |                |                |                |
|----------------|----------------|----------------|----------------|
|----------------|----------------|----------------|----------------|
|----------------|----------------|----------------|----------------|
|9999999999999999|7777777777777777|5555555555555555|4444444444444444|
|7777777777777777|5555555555555555|3333333333333333|2222222222222222|
|----------------|----------------|----------------|----------------|
 Something moved in front of me......

Guitar 1: Strum this very fast
|----------------|----------------|----------------|----------------|
|----------------|----------------|----------------|----------------|
|----------------|----------------|----------------|----------------|
|----------------|--------7-------|----7---9-------|--------7-------|
|7------10---7---|----9-------9---|10----------10--|9---10------9---|
|----------------|10--------------|----------------|----------------|
|                |                |                |                |
|Guitar 2        |                |                |                |
|----------------|----------------|----------------|----------------|
|----------------|----------------|----------------|----------------|
|----------------|----------------|----------------|----------------|
|9999999999999999|7777777777777777|----------------|4444444444444444|
|7777777777777777|5555555555555555|5555555555555555|2222222222222222|
|----------------|----------------|3333333333333333|----------------|


 Riff K: Play twice
 Guitar 1: Strum very fast
|------------------------|------------------------|
|------------------------|------------------------|
|------------------------|44444444442222222222----|
|222222------555---000000|--------------------0000|
|------333333---333------|------------------------|
|------------------------|------------------------|
|                        |                        |
|Guitar 2                |                        |
|------------------------|------------------------|
|------------------------|------------------------|
|------------------------|44444444442222222222----|
|999999555555555555777777|555555555544444444447777|
|777777333333333333555555|--------------------5555|
|------------------------|------------------------|

 Guitar 1
|------------------------|------------------------|
|------------------------|------------------------|
|------------------------|444444444422222222224422|
|222222------555---------|------------------------|
|------333333---333222222|------------------------|
|------------------------|------------------------|
|                        |                        |
|Guitar 2                |                        |
|------------------------|------------------------|
|------------------------|------------------------|
|------------------------|444444444422222222224422|
|999999555555555555111111|555555555544444444445544|
|777777333333333333222222|------------------------|
|------------------------|------------------------|

Play the following riffs:

Riff D x4
Riff F x2
Riff G x2
Riff H x4

  Visit MetalTabs.com for more metal tablature

bottom separator

Contact Us | Privacy Policy | Disclaimer | Legal Notice
Copyright © 2001-2014 MetalTabs.com. All Rights Reserved.