top separator

Home

Forum

What's New

Submit a Tab

FAQ

Links

Contact Us

Link to Us

MuSpy.com

MetalTabs.com logo

Bands

0-9

A

B

C

D

E

F

G

H

I

J

K

L

M

N

O

P

Q

R

S

T

U

V

W

X

Y

Z

Search

What

Where
 

Abyssos - "We Hail Thy Entrance" Guitar Tab

Plain Text Version
More Abyssos Tabs

Hits: 3974
Rated: 4.00 out of 5 (3 votes)
Updated: 2004-04-09 04:16:11

 

By:

sendpm.gif

email.gif

Important note
We did our best to reach Abyssos and ask for their permission to publish this tab. Unfortunately they did not respond to our requests or we could not find a way to contact them. This tab is available online until Abyssos tells us to take it down.


#----------------------------------PLEASE NOTE---------------------------------#
#This file is the author's own work and represents their interpretation of the #
#song. You may only use this file for private study, scholarship, or research. #
#Unless specified otherwise, this is NOT an official tab from the band members.#
#------------------------------------------------------------------------------#

  Visit MetalTabs.com for more metal tablature
  
Abyssos

Song: We Hail Thy Entrance
Album: Together We Summon The Dark.

Transcribed by Samuel Earp. (Samuel_earp@hotmail.com) Guernsey, Channel Islands.


Tuning: E


Intro: riff A. Strum this very fast
|----------------|---------------|----------------|---------------|
|----------------|---------------|----------------|---------------|
|----------------|---------------|----------------|---------------|
|-999999999999999|555555555555555|9999999999999999|888888888888888|
|-777777777777777|333333333333333|7777777777777777|666666666666666|
|----------------|---------------|----------------|---------------|

|----------------|---------------|----------------|---------------|
|----------------|---------------|----------------|---------------|
|----------------|---------------|----------------|---------------|
|9999999999999999|555555555555555|9999999999999999|-9-------------|
|7777777777777777|333333333333333|7777777777777777|-7-------------|
|----------------|---------------|----------------|---------------|

Riff B: play twice.
 Guitar 1
|-------------------------------|-------------------------------|
|-------------------------------|-------------------------------|
|---------12---------12---------|---------7---------7-----------|
|-----9----------9----------9---|-----5---------5---------5-----|
|-7----------7----------7-------|-3---------3---------3---------|
|-------------------------------|-------------------------------|
|                                |                                |
|Guitar 2                          |                                |
|-------------------------------|-------------------------------|
|-------------------------------|-------------------------------|
|-------------------------------|-------------------------------|
|-999999999999999999999999999999|5555555555555555555555555555555|
|-777777777777777777777777777777|3333333333333333333333333333333|
|-------------------------------|-------------------------------|

Guitar 2
|-------------------------------|-------------------------------|
|-------------------------------|-------------------------------|
|---------12---------12---------|---------11---------11---------|
|-----9----------9----------9---|-----8----------8----------8---|
|-7----------7----------7-------|-6----------6----------6-------|
|-------------------------------|-------------------------------|
|                                |                                |
|                                |                                |
|-------------------------------|-------------------------------|
|-------------------------------|-------------------------------|
|-------------------------------|-------------------------------|
|-999999999999999999999999999999|8888888888888888888888888888888|
|-777777777777777777777777777777|6666666666666666666666666666666|
|-------------------------------|-------------------------------|

Guitar 1
|-------------------------------|-------------------------------|
|-------------------------------|-------------------------------|
|---------12---------12---------|---------7---------7-----------|
|-----9----------9----------9---|-----5---------5---------5-----|
|-7----------7----------7-------|-3---------3---------3---------|
|-------------------------------|-------------------------------|
|                                |                                |
|Guitar 2                        |                                |
|-------------------------------|-------------------------------|
|-------------------------------|-------------------------------|
|-------------------------------|-------------------------------|
|-999999999999999999999999999999|5555555555555555555555555555555|
|-777777777777777777777777777777|3333333333333333333333333333333|
|-------------------------------|-------------------------------|


 Guitar 1
|-------------------------------|-------------------------------|
|-------------------------------|-------------------------------|
|---------12---------12---------|---------5---------4-----------|
|-----9----------9----------9---|-----4---------4---------4-----|
|-7----------7----------7-------|-2---------2---------2---------|
|-------------------------------|-------------------------------|
|                                |                                |
|Guitar 2                        |                                |
|-------------------------------|-------------------------------|
|-------------------------------|-------------------------------|
|-------------------------------|-------------------------------|
|-999999999999999999999999999999|4444444444444444444444444444444|
|-777777777777777777777777777777|2222222222222222222222222222222|
|-------------------------------|-------------------------------|


 Riff C: play twice.
 Guitar 1.
|-------------------------------|-------------------------------|
|-------------------5-----------|-------------------------------|
|-------------------------4-----|-6--------7---6---7---4---6----|
|-----------5-------------------|-------------------------------|
|-------7-----------------------|-------------------------------|
|-0-----------------------------|-------------------------------|
|                                |                                |
|Guitar 2. Strum these notes very fast                                |
|-------------------------------|-------------------------------|
|-------------------------------|-------------------------------|
|-------------------------------|-------------------------------|
|-------------------------------|4444444444444444444444444444444|
|-222222222222222222222222222222|2222222222222222222222222222222|
|-000000000000000000000000000000|-------------------------------|


Guitar 1.
|-------------------------------|-------------------------------|
|-------------------------------|------------------5------------|
|-----------6---7---6-------6---|------------6-----------4------|
|-7---------------------7-------|-6-----7-----------------------|
|-------------------------------|-------------------------------|
|-------------------------------|-------------------------------|
|                                |                                |
|Guitar 2. Strum these notes very fast                                  |
|-------------------------------|-------------------------------|
|-------------------------------|-------------------------------|
|-------------------------------|-------------------------------|
|-------------------------------|6666666666666666666666666666666|
|-444444444444444444444444444444|4444444444444444444444444444444|
|-222222222222222222222222222222|-------------------------------|

Play riff B again once

|------||
|------||
|------||
|-9----||
|-7----||
|------||


 Riff D: play twice.
 Guitar 1
|-------------|------------------|--------------|------------------|
|-------------|------------------|--------------|------------------|
|-------------|------------------|--------------|------------------|
|----9--7--9--|----9-h7p9-7------|----9--7--9---|-7-9-10-9-9-7-9---|
|-7-----------|------------p10-9-|-7------------|----------------10|
|-------------|-7----------------|--------------|------------------|
|              |                         |                |                   |
|Guitar 2     |                   |                |                   |
|-------------|------------------|--------------|------------------|
|-------------|------------------|--------------|------------------|
|-------------|------------------|--------------|------------------|
|-9-----------|------------------|-9------------|-7----5-----------|
|-7-----------|-9----------------|-7------------|-5----3-----------|
|-------------|-7----------------|--------------|------------------|

 Guitar 1
|-------------|------------------|--------------|------------------|
|-------------|------------------|--------------|------------------|
|-------------|------------------|--------------|------------------|
|----9--7--9--|----9-h7p9-7------|----9--7--9---|---7-9-10---9-7---|
|-7-----------|-------------10-9-|-7------------|------------------|
|-------------|-7----------------|--------------|-8----------------|
|              |                         |                |                   |
|Guitar 2     |                   |                |                   |
|-------------|------------------|--------------|------------------|
|-------------|------------------|--------------|------------------|
|-------------|------------------|--------------|------------------|
|-9-----------|------------------|-9------------|-5----7-----------|
|-7-----------|-9----------------|-7------------|-3----5-----------|
|-------------|-7----------------|--------------|------------------|


 Riff E: play twice.
 Guitar 1
|-------------------------------|-------------------------------|
|-------------------------------|-------------------------------|
|-------------------------------|-------------------------------|
|-----5------7--------5---------|-----5--------7--9--7----------|
|-7------7-------7---------7----|-7-------7--------------2--3---|
|-------------------------------|-------------------------------|
|                                |                                |
|Guitar 2. Strum very fast        |                                |
|-------------------------------|-------------------------------|
|-------------------------------|-------------------------------|
|-------------------------------|-------------------------------|
|-------------------------------|-------------------------------|
|-777777777777777777777777777777|7777777777777999101099992233333|
|-------------------------------|-------------------------------|
 Show me the landscapes that will soon be mine.......

 Guitar 1
|-------------------------------|-------------------------------|
|-------------------------------|-----------------5-----3-------|
|-----5--------4---------4------|-------5--------------------5--|
|-5-------5---------5---------5-|--5--------5-------------------|
|-------------------------------|-------------------------------|
|-------------------------------|-------------------------------|
|                                |                                |
|Guitar 2. Strum very fast        |                                |
|-------------------------------|-------------------------------|
|-------------------------------|-------------------------------|
|-------------------------------|-------------------------------|
|-------------------------------|-------------------------------|
|3333333333333333333333333333333|33333333333222220000-----------|
|-------------------------------|--------------------33332222000|


Riff F: play 4 times
|-------------|---------------|------------------|------------------|
|-------------|---------------|------------------|--------3---------|
|-------------|---------------|------------------|-2-4-5----5--4--5-|
|-9-----------|-9-10----------|-3----------11-12-|--------7---------|
|-7-----------|-7-8-----------|-1----------9—-10-|-7-9-10---10-9-10-|
|--00000000000|0----0000000000|0-0000000000------|------------------|


 Riff G: play twice
 Guitar 1
|-------------------------------|-------------------------------|
|----------------5--------------|-------------------------------|
|-----5---4-------------5---4---|---------------4---------------|
|-2-----------2-----2-----------|----5---4-------------5----4---|
|-------------------------------|2-----------2-----2------------|
|-------------------------------|-------------------------------|
|                                |                                |
|Guitar 2. Strum very fast        |                                |
|-------------------------------|-------------------------------|
|-------------------------------|-------------------------------|
|-------------------------------|-------------------------------|
|-222222222222222222222222222222|-------------------------------|
|-------------------------------|2222222222222222222222222222222|
|-------------------------------|-------------------------------|

Back to riff F: play 4 times again.






Riff H: play 4 times
|----------------|----------------|----------------|---------------|
|----------------|----------------|----------------|---------------|
|-9--------------|7---------------|5---------------|4-------------7|
|-9--------------|7---------------|5---------------|4-------------7|
|-7--------------|5---------------|3---------------|2-------------5|
|--00000000000000|-000000000000000|-000000000000000|-0000000000000-|
 The blood of a thousand vampires

|----------------|----------------|----------------|---------------|
|----------------|----------------|----------------|---------------|
|-9--------------|7---------------|5---------------|10---9---10----|
|-9--------------|7---------------|5---------------|10---9---10----|
|-7--------------|5---------------|3---------------|8----7---8-----|
|--00000000000000|-000000000000000|-000000000000000|---0---0-------|
 Runs through my filthy veins......



Riff: I Play twice. Strum very fast.
|----------------------|----------------------|
|----------------------|----------------------|
|----------------------|----------------------|
|------------9999955555|0000000000002222200000|
|7777777777777777777777|2222222222222222222222|
|----------------------|----------------------|
 I stand in the pentagram

|----------------------|----------------------|
|----------------------|----------------------|
|----------------------|----------------------|
|5555555555554444455555|5555544444999999777777|
|3333333333333333333333|5555555555555555555555|
|----------------------|----------------------|
 Invoking the daimons to rise

|----------------------|----------------------|
|----------------------|----------------------|
|----------------------|----------------------|
|------------9999955555|----------------------|
|7777777777777777777777|5555555555544444455555|
|----------------------|7777777777777777777777|
 In the light of a thousand candles

|----------------------|----------------------|
|----------------------|----------------------|
|----------------------|----------------------|
|5555555555554444444444|4444444444555555444444|
|3333333333333333333333|5555555555555555555555|
|----------------------|----------------------|
 Shadows dance before my eyes......

|----------------------||
|----------------------||
|----------------------||
|-5--------------------||
|-7--------------------||
|----------------------||

 Guitar fades out. Sound of galloping horses.


|----------------|
|----------------|
|----------------|
|-3-3-3---3-3-3--|
|-1-1-1---1-1-1--|
|----------------|


 Riff J
|---------------------------------|---------------------------------|
|-----0---------------------------|-----0---------------------------|
|---------0-----------------------|------0--------------------------|
|-2-----------2--------5---4---5--|-2-----2--------------10--9---10-|
|-2--------------------3---2---3--|-2--------------------8---7---8--|
|-0---------------0--0------------|-0---------------0--0------------|
 Evil                  We adore you

|-----3---------------------------|---------------------------------|
|-------------0-------------------|-----0---------------------------|
|---------------------------------|---------0-----------------------|
|-2--------------------5---4---5--|-2-------------3------3--3--3--3-|
|-2--------------------3---2---3--|-2-------------1------1--1--1--1-|
|-0-------------------------------|-0-----------0-------------------|
 Evil                  Finally you have arrived


 Riff K
 Guitar 1
|---------------------------------|---------------------------------|
|---------------------------------|---------------------------------|
|-9----12—--11h12p11h12--9---10---|-9-------------------------------|
|---------------------------------|-------10---9---10---9-----7-----|
|---------------------------------|---------------------------------|
|---------------------------------|---------------------------------|
|                                 |                                 |
|Guitar 2                         |                                 |
|---------------------------------|---------------------------------|
|---------------------------------|---------------------------------|
|---------------------------------|---------------------------------|
|------5----4-----5---------------|--------10--9---10---9-9----7-7--|
|-2-2--3----2-----3----2-2---3--3-|-2-2----8---7---8----7-7----5-5--|
|-0-0------------------0-0---1--1-|-0-0-----------------------------|

 Guitar 1
|---------------------------------|---------------------------------|
|---------------------------------|---------------------------------|
|-9----12—--11h12p11h12--9---10---|-9------12—-11--12---9------7----|
|---------------------------------|----------------------------8----|
|---------------------------------|---------------------------------|
|---------------------------------|---------------------------------|
|                                 |                                 |
|Guitar 2                         |                                 |
|---------------------------------|---------------------------------|
|---------------------------------|---------------------------------|
|---------------------------------|---------------------------------|
|------5----4-----5---------------|--------5---4---5-----------3----|
|-2-2--3----2-----3----2-2---3--3-|-2-2----3---2---3----2-2----1----|
|-0-0------------------0-0---1--1-|-0-0-----------------0-0---------|

Play Riff J again followed by Riff K.


 Riff L: Play 4 times
 Guitar 1
|--------------------------0----|-------------------------------|
|--------------------1----------|-------------------------------|
|--------2----0-----------------|4-----5-----4------2-----4-----|
|-------------------------------|-------------------------------|
|0------------------------------|-------------------------------|
|-------------------------------|-------------------------------|
|                                |                                |
|Guitar 2                        |                                |
|-------------------------------|-------------------------------|
|-------------------------------|-------------------------------|
|-------------------------------|-------------------------------|
|2222222222222222222222222222222|-------------------------------|
|0000000000000000000000000000000|3333333333333333333333333333333|
|-------------------------------|1111111111111111111111111111111|


 Riff M
 Guitar 1
|-------------------------------|-------------------------------|
|------------5------------------|-------------------------------|
|4-----------------------4------|5------7------5-----4-----5----|
|-------------------------------|-------------------------------|
|-------------------------------|-------------------------------|
|-------------------------------|-------------------------------|
|                                |                                |
|Guitar 2                        |                                |
|-------------------------------|-------------------------------|
|-------------------------------|-------------------------------|
|-------------------------------|-------------------------------|
|-------------------------------|-------------------------------|
|2222222222222222222222222222222|3333333333333333333333333333333|
|0000000000000000000000000000000|1111111111111111111111111111111|

Guitar 1
|-------------------------------|-------------------------------|
|------------5------------------|-------------------------------|
|4-----------------------4------|7----5----4----2----4----5-----|
|-------------------------------|-------------------------------|
|-------------------------------|-------------------------------|
|-------------------------------|-------------------------------|
|                                |                                |
|Guitar 2                        |                                |
|-------------------------------|-------------------------------|
|-------------------------------|-------------------------------|
|-------------------------------|-------------------------------|
|-------------------------------|-------------------------------|
|2222222222222222222222222222222|3333333333333333333333333333333|
|0000000000000000000000000000000|1111111111111111111111111111111|

 Play Riff L four times, then play Riff M once.



 Riff N: Play 4 times
 Guitar 1
|----------------|----------------|----------------|---------------|
|----------------|----------------|----------------|---------------|
|---------9------|----------------|---------9------|---------------|
|-----9-------9--|----9-—7--------|-----9-------9--|-9-10-9-7-9-7--|
|-7--------------|----------10--9-|-7--------------|---------------|
|----------------|-7--------------|----------------|---------------|
|                |                |                |               |
|Guitar 2        |                |                |               |
|----------------|----------------|----------------|---------------|
|----------------|----------------|----------------|---------------|
|----------------|----------------|----------------|---------------|
|-9-----9--9-----|----------------|-9-----9--9-----|---------------|
|-7-----7--7-----|-9-----9--9-----|-7-----7--7-----|-101210-9-10-9-|
|----------------|-7-----7--7-----|----------------|---------------|
Note: These are tens and twelve’s not zero’s one’s and two’s.
 Guitar 1
|----------------|----------------|----------------|---------------|
|----------------|----------------|----------------|---------------|
|---------9------|----------------|---------9------|-----------10--|
|-----9-------9--|----9-—7--------|-----9-------9--|------7--------|
|-7--------------|----------10--9-|-7--------------|-5-------------|
|----------------|-7--------------|----------------|---------------|
|                |                |                |               |
|Guitar 2        |                |                |               |
|----------------|----------------|----------------|---------------|
|----------------|----------------|----------------|---------------|
|----------------|----------------|----------------|---------------|
|-9-----9--9-----|----------------|-9-----9--9-----|-7-----7--7----|
|-7-----7--7-----|-9-----9--9-----|-7-----7--7-----|-5-----5--5----|
|----------------|-7-----7--7-----|----------------|---------------|

Play the following riffs as follows:

Riff C x2
Riff B x2
Riff D x2
Riff E x2
Riff I x2
Riff F x4
Riff H x4
Riff N x4
Riff B x2

|------||
|------||
|------||
|-9----||
|-7----||
|------||

  Visit MetalTabs.com for more metal tablature

bottom separator

Contact Us | Privacy Policy | Disclaimer | Legal Notice
Copyright © 2001-2014 MetalTabs.com. All Rights Reserved.