#----------------------------------PLEASE NOTE---------------------------------#
#This file is the author's own work and represents their interpretation of the #
#song. You may only use this file for private study, scholarship, or research. #
#Unless specified otherwise, this is NOT an official tab from the band members.#
#------------------------------------------------------------------------------#

  Visit MetalTabs.com for more metal tablature
  
SUFFOCATION - TORN INTO ENTHRALLMENT
                       From the Album PIERCED FROM WITHIN
                       Copyright 1995 Road Runner Records

                       Version 666  April 2004

The other version on this site is wrong in some details.
Better check this one out!


Transcribed by: the almighty STORMBRINGER
Visit: http://www.veganstraightedge.de



/     slide up
\     slide down
p     pull on
h     hammer on
~     vibrato
.     pm
hr    harmonic


Tuning:C sharp

|---------------------------------------------------|
|---------------------------------------------------|
|-------0---0---------------------0---0-------------|
|-----9---8-------7---7---------9---8-------7-------|
|---7-----------6---6---6-----7-----------6---6---6-|
|-0-----------0-------------0-----------0-------7---|


|--------------------------------------------------|
|--------------------------------------------------|
|-------0---0--------------------------------4-5-4-|
|-----9---8-------7---7--------5-----------4-------|
|---7-----------6---6---6----6---6---6---5---------|
|-0-----------0------------7-------7---6-----------|


      . . . .     . . . .     . . . .     . . . .
|-------------------------------------------------|
|-------------------------------------------------|
|-----4---3-------3---3-------4---3-------3-------|
|-2-----2---2-2-----2---2-2-----2---2-2-----2---2-|
|-2-----------2-----------2-----------2-------2---|
|-0-----------0-----------0-----------0-----------|

      . . . .     . . . .     . . . .        . . . .
|------------------------------------------------------------------|
|------------------------------------------------------------------|
|-------------------------------------/--------------/-4-----------|
|-2---4---3---2---3---3---2---4---3---/--2---3-------/---3---2---1-|
|-2---2-5-1-3-2---1-3-1-3-2---2-5-1-3-/--2---1-3-2-3-/-----3---2---|
|-0-----3---1-0-----1---1-0-----3---1-/--0-----1-0-1-/-------------|



|---------------------------------------------------------|
|---------------------------------------------------------|
|---------------------------------------------------/-----|
|-2-----------2-----------2-----------2-------------/---2-|
|-2---7---6---2---6---5---2---5---4---2---4---3-----/---2-|
|-0-----8---7-0-----7---6-0-----6---5-0-----5---4---/---0-|
3rd and 4th time: 2nd guitar plays 5th to the single notes

            . . . . . .     . . . . . .     . . . . . .     . . . . .
|-----------------------------------------------------------------------|
|-----------------------------------------------------------------------|
|-----------------------------------------------------------------------|
|-5-4---4-------------5-4-------------5-4-------------5-4-------------5-|
|-3-2---2---4-4-7-7-6-3-2---4-4-7-7-6-3-2---4-4-7-7-6-3-2---4-4-7-7-6-3-|
|-----------2-2-5-5-4-------2-2-5-5-4-------2-2-5-5-4-------2-2-5-5-4---|

      . . . . . .     ... ... ...     . . . . . .     . . . . .
|-----------------------------------------------------------------|
|-----------------------------------------------------------------|
|-----------------------------------------------------------------|
|-4-------------5-3---------------4-------------5-4-------------5-|
|-2---4-4-7-7-6-3-1---------------2---4-4-7-7-6-3-2---4-4-7-7-6-3-|
|-----2-2-5-5-4-------222-555-444-----2-2-5-5-4-------2-2-5-5-4---|

      ... ... ...     ... ... ...   ... ... ...       ... ... .
|-----------------------------------------------------------------|
|-----------------------------------------------------------------|
|-----------------------------------------------------------------|
|-4---------------4---------------4---------------4-------------5-|
|-2---------------2---------------2---------------2-------------3-|
|-----222-555-444-----222-555-444-----222-555-444-----222-555-4---|

      . . . . . .     . . . . . .     . . . . . .     . . . . .
|------------------------------------------------------------------|
|------------------------------------------------------------------|
|------------------------------------------------------------------|
|-4-------------5-4-------------5-3-------------5-4-------------5--|
|-2---4-4-7-7-6-3-2---4-4-7-7-6-3-1---4-4-7-7-6-3-2---4-4-7-7-6-3--|
|-----2-2-5-5-4-------2-2-5-5-4-------2-2-5-5-4-------2-2-5-5-4----|


      ...........................     ....................
|-----------------------------------------------------------------|
|-----------------------------------------------------------------|
|-----------------------------------------------------------------|
|-6-------------------------------6---------------------------7---|
|-4-------------------------------4---------------------------5---|
|-----3333222233335555333322223333----333322223333555533335555----|

      ........................        ..................... .
|-----------------------------------------------------------------|
|-----------------------------------------------------------------|
|-----------------------------------------------------------------|
|-6-------------------------------6-------------------------------|
|-4-------------------------------4-----------------------4-4-3---|
|-----3333222233335555333322223333----333322223333555533332-2-1---|
2nd time: 2nd guitar plays minor 3rds to the tremolo notes


    ..............  ....  ....  ..  ..............  ....  ....  ..
|-----------------------------------------------------------------|
|-----------------------------------------------------------------|
|-----------------------------------------------------------------|
|-4---------------4-----4-----4---3---------------3-----3-----3---|
|-2---------------2-----2-----2---1---------------1-----1-----1---|
|---11111111111111--1111--1111--11--11111111111111-1111-1111--11|

    ..............  ....  ....  ..  ..............  ....  ....  ..
|-----------------------------------------------------------------|
|-----------------------------------------------------------------|
|-----------------------------------------------------------------|
|-6---------------6-----6-----6---5---------------5-----5-----5---|
|-4---------------4-----4-----4---3---------------3-----3-----3---|
|---00000000000000--0000--0000--00--00000000000000--0000-0000--00|

    ..............  ....  ....  ..  ..............  ....  ....  ..
|-----------------------------------------------------------------|
|-----------------------------------------------------------------|
|-----------------------------------------------------------------|
|-4---------------4-----4-----4---3---------------3-----3-----3---|
|-2---------------2-----2-----2---1---------------1-----1-----1---|
|---11111111111111--1111--1111--11--11111111111111-1111-1111--11|

    ..............  ....  ....  ... . . . . . . . . . . . . . . .
|-----------------------------------------------------------------|
|-----------------------------------------------------------------|
|-----------------------------------------------------------------|
|-6---------------6-----6-----6---5-5-4-4-7-7-6-6-5-5-4-4-7-7-6-6-|
|-4---------------4-----4-----4---3-3-2-2-5-5-4-4-3-3-2-2-5-5-4-4-|
|---00000000000000--0000--0000--00--------------------------------|


  ... . . ... . . ... . . . . . .   .   .   .   .   .   .   .   .
|-------------------------------------------------------------------|
|-------------------------------------------------------------------|
|-------------------------------------------------------------------|
|---------------------------------------------------4---3-----------|
|-------4-------5-------4-3-----4---3---2---4---5---2---1---4---5---|
|-222-5---333-6---222-5-----2-2-----1---0---2---3-----------2---3---|

  ... .   ... .   ... .   ... .   ... .   ... .   . . .   . . .
|-------------------------------------------------------------------|
|-------------------------------------------------------------------|
|-------------------------------------------------------------------|
|-------------------------------------------------------7-------6---|
|-------4-------5-------4-------3-------7-------6-5-5-8---4-4-7-----|
|-222-5---333-6---222-5---111-4---555-8---444-7---------------------|

  ... .   ... .   ... .   . . .   ................................
|-----------------------------------------------------------------|
|-----------------------------------------------------------------|
|-----------------------------------------------------------------|
|-----------------------------------------------------------------|
|-------4-------5-------4-3-----4-----------------22221111--------|
|-222-5---333-6---222-5-----2-2---1111000022223333--------22223333|

  ... .   ... .   ... .   ... .   ... .   ... .   . . .   . . .
|-------------------------------------------------------------------|
|-------------------------------------------------------------------|
|-------------------------------------------------------------------|
|-------------------------------------------------------7-------6---|
|-------4-------5-------4-------3-------7-------6-5-5-8---4-4-7-----|
|-222-5---333-6---222-5---111-4---555-8---444-7---------------------|

  . . .  .  . . .  .
|--------------------|
|--------------------|
|--------------------|
|--------10--------9-|
|-8-8-11----7-7-10---|
|--------------------|


  ........  .   . ......  .   . . ........  .   . ......  .   . .
|-----------------------------------------------------------------|
|-----------------------------------------------------------------|
|-----------------------------------------------------------------|
|-----------------------------------------------------------------|
|---------7---6---------6---5-------------5---4---------4---3-----|
|-00000000--8---7-000000-7---6-6-00000000--6---5-000000--5---4-4-|

  ........  .   . ......  .   . . ........  .   .   .   .   .   .
|-----------------------------------------------------------------|
|-----------------------------------------------------------------|
|-----------------------------------------------------------------|
|-----------------------------------------------------------------|
|---------7---6---------6---5-------------5---4---3---4---5---4---|
|-00000000--8---7-000000-7---6-6-00000000--6---5---4---5---6---5-|


  . . . . .               . . . . .   .   .   .
|-------------------------------------------------|
|-------------------------------------------------|
|-------------------------------------------------|
|------------(2)-(2)-(1)----------------------hr--|
|-5-5-6-5-4---4---4---3---5-5-6-5-4---5---2--(4)--|
|-3-3-4-3-2---------------3-3-4-3-2---3---0--(2)--|

  . . . . .               . . . . .   .   .   .
|-------------------------------------------------|
|-------------------------------------------------|
|-------------------------------------------------|
|------------(2)-(2)-(1)----------------------hr--|
|-5-5-6-5-4---4---4---3---5-5-6-5-4---6---3--(5)--|
|-3-3-4-3-2---------------3-3-4-3-2---4---1--(3)--|
(not 100% sure about this part; sounds pretty muffled.)

  ........  .   . ......  .   . . ........  .   . ......  .   . .
|-----------------------------------------------------------------|
|-----------------------------------------------------------------|
|-----------------------------------------------------------------|
|---------4---3-----------3---3-----------4---3-----------3-------|
|---------2-5-1-3---------1-3-1-3---------2-5-1-3---------1-3-2-3-|
|-00000000--3---1-00000000-1---1-00000000--3---1-00000000--1-0-1-|


            ... .                             ... .           ... .
|guit-1---------------------------|guit-2---------------------------|
|---------------------------------|---------------------------------|
|-4---------------7---------------|-7---------------10--------------|
|---3---3-----------6---6---------|---6---6-----------9---9---------|
|-----2---4-----------5---7-------|-----5---7-----------8---10----8-|
|-----------332-3-----------6-5-6-|-----------665-6-----------998---|



|guit-1------------------------------|guit-2------------------------------|
|------------------------------------|------------------------------------|
|4-----------------7-----------------|7-----------------10----------------|
|---3-----3-----------6-----6--------|---6-----6------------9-----9-------|
|------2-----4-----------5-----7-----|------5-----7------------8-----10---|
|---------------3-----------------6--|---------------6------------------9-|


The rest is easy; listen to it to piece it together.

  Visit MetalTabs.com for more metal tablature