top separator

Home

Forum

What's New

Submit a Tab

FAQ

Links

Contact Us

Link to Us

MetalTabs.com logo

Bands

0-9

A

B

C

D

E

F

G

H

I

J

K

L

M

N

O

P

Q

R

S

T

U

V

W

X

Y

Z

Search

What

Where
 

Deranged - "Flesh Rebel" Guitar Tab

Plain Text Version
More Deranged Tabs

Hits: 2681
Updated: 2004-04-08 09:39:03

 

By:

sendpm.gif

email.gif

Important note
This tab is available online because we obtained explicit permission from Deranged or their label.


#----------------------------------PLEASE NOTE---------------------------------#
#This file is the author's own work and represents their interpretation of the #
#song. You may only use this file for private study, scholarship, or research. #
#Unless specified otherwise, this is NOT an official tab from the band members.#
#------------------------------------------------------------------------------#

  Visit MetalTabs.com for more metal tablature
  
Tun: B E A D F# b



         Riff 1a X3
|-----------------------|
|-----------------------|
|-----------------------|
|------------66666------|
|-----------------5h6p3-|
|-000-000-000-----------|
  ... ... ...



         Riff 1b X1
|-------------------|
|-------------------|
|-------------------|
|-------------66666-|
|-------------------|
|-000-000-000-------|
  ... ... ...



        Riff 1a X1

        Riff 1b X1



        Riff 2 X2
|----------------------------------------|
|----------------------------------------|
|----------------------------------------|
|------------------------------------9ah-|
|-8----7----8----9----8----7----8--------|
|---00---00---00---00---00---00---00-----|
    ..   ..   ..   ..   ..   ..   ..





        Fill 1
|--------------------------------|
|--------------------------------|
|--------------------------------|
|--------------------------------|
|------777777-----77558866997710-|
|-000----------------------------|
  ...




        Riff 3 X8
|-------------------|
|-------------------|
|-------------------|
|-------------------|
|-2"---4"---2"---3"-|
|-------------------|



      Break

        Riff 3 X8



        Riff 4 X1
|----------------------------------------|
|----------------------------------------|
|----------------------------------------|
|----------------------------------------|
|----------------------------------------|
|-000-000-000-000-0-0-000-000-000-000000-|
  ... ... ... ... . . ... ... ... ......



        Riff 3 X8

        Break

        Riff 3 X16

        Riff 4 X7

        Riff 1a X2

        Riff 3 X8

        Break

        Riff 3 X8

        Riff 4 X1




        Riff 5 X4
|---------------------------------------------|
|---------------------------------------------|
|---------------------------------------------|
|----4"-5"-------4"-5"-------4"-5"------------|
|-0"-------3"-0"-------3"-0"---------5/6--5/7-|
|----------------------------------0----------|
                                   .



        Riff 6a X4
|-------------------------------------|
|-------------------------------------|
|-------------------------------------|
|-----5"------5"------5"--------------|
|-0"------0"------0"------0"-5"-6"-5"-|
|-------------------------------------|
  .   .   .   .   .   .   .  .  .  .




        Riff 6b X4
|-------------------------------------|
|-------------------------------------|
|-------------------------------------|
|-----5"------5"------5"--------------|
|-0"------0"------0"------0"-5"-6"-5"-|
|-------------------------------------|




        Fill 2
|---------------------------------------------|
|---------------------------------------------|
|---------------------------------------------|
|---------------------------------------------|
|---------------------------------------------|
|-2-1-0-3-2-1-4-3-2-5-4-3-6-5-4-7-6-5-8-7-6-9-|
  . . . . . . . . . . . . . . . . . . . . . .



        Riff 1a X3

        Riff 1b X1

        Riff 1a X3

        Riff 1b X2




        Riff 7a  X2                X3
|----------------------------------|-----------------|
|----------------------------------|-----------------|
|----------------------------------|-----------------|
|-8\7------------------------------|---------------5-|
|-6\5------------------------------|------5/7-7-8--3-|
|-----0-0--0-0--0-0--0-0--0-0--0-0-|------3/5-5-6----|
      . .  . .  . .  . .  . .  . .





        Riff 7b X2                 X3
|----------------------------------|----------------|
|----------------------------------|----------------|
|----------------------------------|----------------|
|-8\7------------------------------|-8\7----------5-|
|-6\5------------------------------|-6\5-5/7-7-8--3-|
|-----0-0--0-0--0-0--0-0--0-0--0-0-|-----3/5-5-6----|
      . .  . .  . .  . .  . .  . .





        Riff 7c X1                X3
|----------------------------------|----------------------|
|----------------------------------|----------------------|
|----------------------------------|----------------------|
|-8\7------------------------------|--------------------5-|
|-6\5------------------------------|-----------5/7-7-8--3-|
|-----0-0--0-0--0-0--0-0--0-0--0-0-|-0-0--0-0--3/5-5-6----|
      . .  . .  . .  . .  . .  . .   . .  . .





        Riff 5bis X1                    1-3          2             4
|----------------------------------|-----------|---------|---------------|
|----------------------------------|-----------|---------|---------------|
|----------------------------------|-----------|---------|---------------|
|----4"-5"-------4"-5"-------4"-5"-|-----------|-------5-|-------8\7-8\7-|
|-0"-------3"-0"-------3"-0"-------|---5/6-5/7-|-3-5-4---|-3-5-4-6\5-6\5-|
|----------------------------------|-0---------|---------|---------------|
                                     .



        Riff 7a X2

        Riff 7b X2

        Riff 7c X1

        Riff 7a X9

        End

     5:30 of Swedish Brutal Death Metal: Kiiilll!!

  Visit MetalTabs.com for more metal tablature

bottom separator

Contact Us | Privacy Policy | Disclaimer | Legal Notice
Copyright © 2001-2014 MetalTabs.com. All Rights Reserved.