top separator

Home

Forum

FAQ

Contact Us

Link to Us

MetalTabs.com logo

Bands

0-9

A

B

C

D

E

F

G

H

I

J

K

L

M

N

O

P

Q

R

S

T

U

V

W

X

Y

Z

Dimmu Borgir - "Absolute Sole Right" Guitar Tab

Plain Text Version
More Dimmu Borgir Tabs

Hits: 4439
Rated: 4.80 out of 5 (5 votes)
Updated: 2004-04-08 09:38:53

By:

The Dimmu Monk


#----------------------------------PLEASE NOTE---------------------------------#
#This file is the author's own work and represents their interpretation of the #
#song. You may only use this file for private study, scholarship, or research. #
#Unless specified otherwise, this is NOT an official tab from the band members.#
#------------------------------------------------------------------------------#

  Visit MetalTabs.com for more metal tablature
  
Band :Dimmu Borgir
Album:Puritanical Euphoric Misanthropia
Song:Absolute Sole Right

Copyright Nuclear Blast 2001

Transcribed by:The Dimmu Monk

This is how I play this song

Notation:

p:palm
/\:slide up-down


Riff 1

E ------------------------------------------------------------
B ------------------------------------------------------------
G -------------4/10--10-----9---------------------------------
D 2-----2------3/9---9------8------2------3--6--6--3--2----2--
A 2-----2------2/8---8-8888-7-7777-2------3--6--6--3--2----2--
E 0-----0-0000-0-------------------0-0000-1--4-4--1--0----0--
          pppp         pppp   pppp   pppp


E ------------------------------------------------------------
B ------------------------------------------------------------
G -----4/10--10-----9-----------------------------------------
D -----3/9---9------8-----------------------------------------
A -----2/8---8-8888-7-7777-----------5/6-3--------------------
E 0000-0-------------------4444-3333-3/4-1--------------------
  pppp         pppp   pppp pppp pppp



Riff 2 - First guitar


E ------------------------------------------------------------
B ------------------------------------------------------------
G ------------------------------------------------------------
D 2--------------------3--5--6--------5--------5--6--5--------
A 2--------------------3--5--6--------5--------5--6--5--------
E 0-----------------0--1--3--4--------3--------3--4--3--------
                    p  p  p                    p  p  p

E ------------------------------------------------------------
B ------------------------------------------------------------
G ------------------------------------------------------------
D 2--------------------3--5--6--------------------------------
A 2--------------------3--5--6-----------------2--------------
E 0-----------------0--1--3--4--------3--4--3-----4--3--------
                    p  p  p           p  p  p  p  p  p



Riff 2  Second guitar

E ------------------------------------------------------------
B ------------------------------------------------------------
G ---------------------------444444444------------------------
D -55555555--------------------------66665555----------------
A ----------77777777777777777---------------------------------
E ------------------------------------------------------------
    pppppppppppppppp         ppppppppppppppppp  (half-palm)


Riff 3


E ------------------------------------------------------------
B ------------------------------------------------------------
G ------------------------------------------------------------
D ------------------------------------------------------------
A ----777777776666----77776666------------------------33332222
E 0000------------0000--------888877771111111144441111--------


E ----------
B ----------
G ----------
D ----------
A ----------
E 443344



Riff 3 alt 1


E ------------------------------------------------------------
B ------------------------------------------------------------
G ------------------------------------------------------------
D ----555555554444----55554444--------------------------------
A ----777777776666----77776666------------------------33332222
E 0000------------0000--------888877771111111144441111--------

  pppppppppppppppppppppppppppppppppppppppppppppppppppppppppppp


E ----------
B ----------
G ----------
D ----------
A ----------
E 443344

  pppppp



Riff 4


E ------------------------------------------------------------
B ------------------------------------------------------------
G ------------------------------------------------------------
D 7------7------7----7------7------7----7------7------7----7--
A 0-0000-0-0000-0-00-6-6666-6-6666-6-66-0-0000-0-0000-0-00-6--
E ------------------------------------------------------------
    pppp   pppp   pp   pppp   pppp   pp   pppp   pppp   pp

E ----------------
B ----------------
G 8\\-------------
D 7\\-------------
A 6\\-------------
E ----------------

E ------------------------------------------------------------
B ------------------------------------------------------------
G ------------------------------------------------------------
D 7------7------7----7------7------7----7------7------7-------
A 0-0000-0-0000-0-00-6-6666-6-6666-6-66-0-0000-0-0000-0-00----
E ------------------------------------------------------------
    pppp   pppp   pp   pppp   pppp   pp   pppp   pppp   pp



E ----------------  * play this twice the last time you play
B ----------------
G 6-----5-----4---    this riff
D --4-----3-----2-
A ----4-----3-----
E ----------------
  p p p p p p p p


Riff 5


E ------------------------------------------------------------
B ------------------------------------------------------------
G ------------------------------------------------------------
D 6------6------6---------------------------------------------
A 4-4444-4-4444-4-44-5------5------5----2------2------2-------
E -------------------3-3333-3-3333-3-33-0-0000-0-0000-0-00----
    pppp   pppp   pp   pppp   pppp   pp   pppp   pppp   pp
E ----------------
B ----------------
G ----------------
D ----5---8-------
A --7---7---7\\---
E 6---------------
  p p p p



Riff 2 - First guitar alt


E ------------------------------------------------------------
B ------------------------------------------------------------
G ------------------------------------------------------------
D 2--------------------3--5--------------------5--6--5--------
A 2--------------------3--5--------------------5--6--5--------
E 0-----------------0--1--3--4444444444333333--3--4--3--------
                    p  p  p                    p  p  p

E ------------------------------------------------------------
B ------------------------------------------------------------
G ------------------------------------------------------------
D 2--------------------3--5-----------------------------------
A 2--------------------3--5--------------------2--------------
E 0-----------------0--1--3--44444444-3--4--3-----4--3--------
                    p  p  p           p  p  p  p  p  p


Riff 3 alt 2

E ------------------------------------------------------------
B ------------------------------------------------------------
G ----3/4-----2-------3/4-3-----------------------------------
D ----1/2-----1-------1/2-1---5---4-------------------5---4---
A 2---------------2-----------3---2---3-------6---3---3---2---
E 0---------------0-------------------1-------4---1-----------


E ----------
B ----------
G ----------
D ----------
A 6\5/6-----
E 4\3/4-----



Riff 6

E ------------------------------------------------------------
B ------------------------------------------------------------
G ------------------------------------------------------------
D 5-5-------5-5-------5-5-------5-5-------4-4-------4-4-------
A 3-3--333--3-3--333--3-3--333--3-3--333--2-2--222--2-2--222--
E 3-3-333--3-3--333--3-3--333--3-3--333--2-2--222--2-2--222--
       ppp       ppp       ppp       ppp       ppp       ppp


E ------------------------------------------------------------
B ------------------------------------------------------------
G ------------------------------------------------------------
D 4-4-------4--4--4-------------------------------------------
A 2-2--222--2--2--2-------------------------------------------
E 2-2--222--2--2--2-------------------------------------------
       ppp  p  p  p





Riff 7


E ------------------------------------------------------------
B ------------------------------------------------------------
G ------------------------------------------------------------
D 4---------------7-------8-------4---------------7-------8---
A 2---------------5-------6-------4---------------5-------6---
E 2---------------5-------6-------2---------------5-------6---

E -------
B -------
G -------
D 8-8----
A 6-6----
E 6-6----
  p p




Riff 7 alt


E ------------------------------------------------------------
B ------------------------------------------------------------
G ------------------------------------------------------------
D 4---------------7-------8-------4---------------7-------8---
A 2---------------5-------6-------4---------------5-------6---
E 2---2222222222225-------6-------2---2222222222225-------6---
      pppppppppppp                    pppppppppppp


E -------
B -------
G -------
D 8-8----
A 6-6----
E 6-6----
  p p


Hail Dimmu Borgir!

  Visit MetalTabs.com for more metal tablature

bottom separator

Contact Us | Privacy Policy | Disclaimer
Copyright © 2001-2014 MetalTabs.com. All Rights Reserved.