top separator

Home

Forum

What's New

Submit a Tab

FAQ

Links

Contact Us

Link to Us

MetalTabs.com logo

Bands

0-9

A

B

C

D

E

F

G

H

I

J

K

L

M

N

O

P

Q

R

S

T

U

V

W

X

Y

Z

Search

What

Where
 

Thou Shalt Suffer - "Into the Woods of Belial" Guitar Tab

Plain Text Version
More Thou Shalt Suffer Tabs

Hits: 3550
Rated: 4.00 out of 5 (2 votes)
Updated: 2004-04-07 11:08:48

 

By:

sendpm.gif

email.gif

Important note
We did our best to reach Thou Shalt Suffer and ask for their permission to publish this tab. Unfortunately they did not respond to our requests or we could not find a way to contact them. This tab is available online until Thou Shalt Suffer tells us to take it down.


#----------------------------------PLEASE NOTE---------------------------------#
#This file is the author's own work and represents their interpretation of the #
#song. You may only use this file for private study, scholarship, or research. #
#Unless specified otherwise, this is NOT an official tab from the band members.#
#------------------------------------------------------------------------------#

  Visit MetalTabs.com for more metal tablature
  
Album: Into the Woods of Belial
Song: Into the Woods of Belial
Band: Thou Shalt Suffer
Transcribed by: Warrick McPherson
E-mail: sirwarrick@hotmail.com

This is the full tab (apart from the solo) of Thou Shalt Suffer's
"Into the Woods of Belial". This is a really good classic early
Death/Black metal albumn starring Ihsahn and Samoth of Emperor. This
albumn is a must have in anyone's collection. This is the first song
off that album, and it is also my first attempt at tabing a song.
But don't worry this should all be correct.......Enjoy!!

Tuning: You must tune your guitar all the way down to "C" before
you will be able to play along with this.

NOTATION:

H - hammer on
P - pull off
B - bend
M - palm mute

Riff 1 - Opening riff

|---------------------------------------------------|
|---------------------------------------------------|
|---------------------------------------------------|
|---------------------------------------------------|
|-2------------7h8p7h8p7h8p7h8----------------------|
|-0----0-0----------------------5555333344442222----|
       M M


|---------------------------------------------------|
|---------------------------------------------------|
|---------------------------------------------------|
|---------------------------------------------------|
|-2------------7h8p7h8p7h8p7h8----------------------|
|-0----0-0----------------------5555555522223333----|
       M M


Riff 2 - Verse type riff

|-------------------------------------------------|
|-------------------------------------------------|
|-------------------------------------------------|
|-------------------------------------------------|
|-------333333222222222222------555555444444444444|
|-111111------------------222222------------------|


|-------------------------------------------------
|-------------------------------------------------
|-------------------------------------------------
|-------101010101010999999999999------121212121212
|-888888------------------------999999------------
|-------------------------------------------------


bar continued...
--------------------------------------------------|
--------------------------------------------------|
--------------------------------------------------|
1111111111111111111111----------------------------|
--------------------------------------------------|
--------------------------------------------------|

NOTE: These are 11's not 1's, there are 12 of them
in this passage as they are played as triplets


Riff 3

|-----------------------------------|
|-----------------------------------|
|-----------------------------------|
|-----------------------------------|
|-----------------------------------|
|-000000006666555533333333444444441-|


|-----------------------------------|
|-----------------------------------|
|-----------------------------------|
|-7777------------------------------|
|-----5555----444477777777----------|
|---------6666----------------------|


Riff 4 - quite a strange riff

|-----------------------------------------|
|-----------------------------------------|
|-----------------------------------------|
|---------5--------3----------------------|
|-2h3------------3-----2h3----------------|
|-----1-0------2-----------1-0--4-0--3h4--|


Riff 5

|---------------------------------|
|---------------------------------|
|---------------------------------|
|-333333333333----6666666622222222|
|-------------2222----------------|
|---------------------------------|

|---------------------------------|
|---------------------------------|
|---------------------------------|
|-------------------------5555----|
|-----------------66666666--------|
|-4444444444444444------------6666|


|---------------------------------|
|---------------------------------|
|---------------------------------|
|-3--------6---2------------5-----|
|------2----------------6---------|
|------------------4-----------4--|


Riff 6

|------------------------------------|
|------------------------------------|
|------------------------------------|
|-5-555-5-555-5-555-3----4-444-4-444-|
|-5-555-5-555-5-555-3--2-4-444-4-444-|
|-3-333-3-333-3-333-1----2-222-2-222-|


|--------------------|
|--------------------|
|--------------------|
|-----------1------2-|
|-3-2---------2--1---|
|------3-1-----------|


|------------------------------------|
|------------------------------------|
|------------------------------------|
|-5-555-5-555-5-555-3----4-444-4-444-|
|-5-555-5-555-5-555-3--2-4-444-4-444-|
|-3-333-3-333-3-333-1----2-222-2-222-|


|----------------------------------------|
|----------------------------------------|
|----------------------------------------|
|-----------1------2-----------------4-3-|
|-3-2---------2--1----3-2-------4----4-3-|
|------3-1-----------------4-2----4--2-1-|


Riff 7

|----------------------------------|
|----------------------------------|
|----------------------------------|
|----------------------------------|
|---------66--------------66-------|
|-44557788--55223344557788--552233-|


then....

go back and play Riff 2
                 Riff 1
                 Riff 2
                 Riff 3

then go to this next riff....

Riff 8

|--------------------------------------------------|
|--------------------------------------------------|
|--------------------------------------------------|
|-----------------------------------------55554444-|
|-88885555444444443333----8888555544444444---------|
|-----77776666--------5555----77776666-------------|


|--------------------------------------------------|
|--------------------------------------------------|
|--------------------------------------------------|
|--------------------------------------------------|
|-88885555444444443333-----------------------------|
|-----77776666--------5555000011113333666633331111-|


Riff 9 - this is the riff over which the solo is played.
Maybe i'll figure it out some day. The first time this
riff is played, only the bass plays the first four notes.

|---------------------------------------------|
|---------------------------------------------|
|---------------------------------------------|
|---------------------------6-5---------------|
|--------------------3-2--5-----3-1-----3---2-|
|-0--3--1--2--0--3-1-----------------1----4---|

now go back and play Riff 4

then the guitar plays this cool part which links
Riff 4 to the outro

Riff 10

|------------------------------------------------|
|------------------------------------------------|
|------------------------------------------4-5-6-|
|------------------------------------------4-5-6-|
|-----3-------------------------3----------2-3-4-|
|-1-1---2-2-1-5h6-4--3-2-1--1-1---2-2-1--1-------|


Now for the final riff.......

Riff 11

|------------------------------------------------|
|------------------------------------------------|
|------------------------------------------------|
|------------------------------------------------|
|-------3p2---------3-3--------3p2-------3-----4-|
|-1-1-1-----1-2-2-2------1-1-1-----1-2-2---3-3---|


|--------------------------------------------------------|
|--------------------------------------------------------|
|--------------------------------------------------------|
|------------------------------------------------------4-|
|-------3p2---------3-3--------3p2-------3-----4-----5-4-|
|-1-1-1-----1-2-2-2------1-1-1-----1-2-2---3-3---4-4---2-|

What an awesome song.......any questions just e-mail me.

  Visit MetalTabs.com for more metal tablature

bottom separator

Contact Us | Privacy Policy | Disclaimer | Legal Notice
Copyright © 2001-2014 MetalTabs.com. All Rights Reserved.