top separator

Home

Forum

FAQ

Contact Us

Link to Us

MetalTabs.com logo

Bands

0-9

A

B

C

D

E

F

G

H

I

J

K

L

M

N

O

P

Q

R

S

T

U

V

W

X

Y

Z

In Flames - "Dawn Of A New Day" Guitar Tab

Plain Text Version
More In Flames Tabs

Hits: 9887
Rated: 4.14 out of 5 (14 votes)
Updated: 2004-04-07 11:06:33

By:

harvester of sorrow


#----------------------------------PLEASE NOTE---------------------------------#
#This file is the author's own work and represents their interpretation of the #
#song. You may only use this file for private study, scholarship, or research. #
#Unless specified otherwise, this is NOT an official tab from the band members.#
#------------------------------------------------------------------------------#

  Visit MetalTabs.com for more metal tablature
  
Band:  In Flames
Album: Reroute to Remain
Song:  Dawn of a New Day

Copyright (c) Nuclear Blast Records 2002
Version 1.0  April 06, 2004

Transcribed By: Chase Thompson (Harvester of Sorrow)
Email:          chaset10@msn.com


.  - palm mute           /  - slide up to
\  - slide down to       ~  - vibrato
h  - hammer on           b  - Bend
p  - pull off            Suffixes for bend
t  - tap                 f  - full bend    h - half bend
ph - pinched harmonic    q  - quarter bend t - tap bend
*  - see comment         ^  - Hold bend    r release bend
x  - Stuccatto           ~  - vibrato bend
,  - slight palm mute    () - ghost note, sustained note
"  - tremolo note        <> - Trill

Tuning:  C  F  A#  D#  G  C



"Dawn of A New Day"


INTRO:


|-------------------------------------------------------------------|
|----------------------------------------7--8---10----87-----------|
|---7s9~----------------------------9-------------------------------|
|-------------------------------------------------------------------|
|-------------------------------------------------------------------|
|-------------------------------------------------------------------|
|                                                                   |
|                                                                   |
|--7----------------------------------3------------5----------------|
|--7----------------------------------3------------5----------------|
|--9----------------------------------5------------7----------------|
|--9----------------------------------5------------7----------------|
|--7----------------------------------3------------5----------------|
|-------------------------------------------------------------------|


|-------------------------------------------------------------------|
|-------------------------------------------------------------------|
|--9-----------------------------------------------------------7----|
|----------------99~-----------------7-----9---10-----9--10--------|
|-------------------------------------------------------------------|
|-------------------------------------------------------------------|
|
|
|--7---------------3------------------5--------------5---------------|
|--7---------------3------------------5--------------5---------------|
|--9---------------5------------------5--------------7---------------|
|--9---------------5------------------7--------------7---------------|
|--7---------------3------------------7--------------5---------------|
|--------------------------------------5------------------------------||





VERSE:


|-------------------------------------------------------------------|
|-------------------------------------------0---------0-------------|
|----9-9-7---9-9-7--------------------------9---------9-------------|
|--------------------------------------7--7-----7--7----------------|
|-------------------------------------------------------------------|
|-------------------------------------------------------------------|


|-------------------------------------------------------------------|
|-------------------------------------------------------------------|
|---9-9--7---9-9--7-------------------------------------------------|
|------------------------------------10--10--9--7------9h10---------|
|-------------------------------------------------------------------|
|-------------------------------------------------------------------|


|-------------------------------------------------------------------|
|--------------------------------------------0---------0------------|
|----9-9-7---9-9-7---------------------------9---------9------------|
|--------------------------------------7--7-----7--7----------------|
|-------------------------------------------------------------------|
|-------------------------------------------------------------------|


|-------------------------------------------------------------------|
|-----------------------------------------8s10s12--------12h13p12---|
|---9-9--7---9-9--7-------------------------------------------------|
|----------------------------10--10--9------------------------------|
|-------------------------------------------------------------------|
|-------------------------------------------------------------------||




CHORUS:


|-------------------------------------------------------------------|
|------------------------------------------7--8-----10--87---------|
|---7s9-------------------------------9-----------------------------|
|-------------------------------------------------------------------|
|-------------------------------------------------------------------|
|-------------------------------------------------------------------|
|                                                                   |
|                                                                   |
|--7----------------------------------3------------5----------------|
|--7----------------------------------3------------5----------------|
|--9----------------------------------5------------7----------------|
|--9----------------------------------5------------7----------------|
|--7----------------------------------3------------5----------------|
|-------------------------------------------------------------------|


|-------------------------------------------------------------------|
|-------------------------------------------------------------------|
|---9---------------------------------------------------------7-----|
|--------------99~-------------------7-----9---10---9---10---------|
|-------------------------------------------------------------------|
|-------------------------------------------------------------------|
|                                                                   |
|                                                                   |
|--7---------------3------------------5--------------5--------------|
|--7---------------3------------------5--------------5--------------|
|--9---------------5------------------5--------------7--------------|
|--9---------------5------------------7--------------7--------------|
|--7---------------3------------------7--------------5--------------|
|-------------------------------------5-----------------------------|

**Play this after repeating chorus twice**

|-------------------------------------------------------------------|
|------------------------------------7------------------------------|
|--7s9~-------------------9-------------9~--------------------------|
|--------------------------------10----------------9~---------------|
|-------------------------------------------------------------------|
|-------------------------------------------------------------------|
|                                                                   |
|                                                                   |
|--3----------------------------------5------------2----------------|
|--3----------------------------------5------------2----------------|
|--5----------------------------------5------------4----------------|
|--5----------------------------------7------------4----------------|
|--3----------------------------------7------------2----------------|
|-------------------------------------5-----------------------------|


|-------------------------------------------------------------------|
|------------------------------------7------------------------------|
|--7s9~-------------------9-------------9~-------7--------9~--------|
|--------------------------------10---------------------------------|
|-------------------------------------------------------------------|
|-------------------------------------------------------------------|
|                                                                   |
|                                                                   |
|--3----------------------------------5------------2----------------|
|--3----------------------------------5------------2----------------|
|--5----------------------------------5------------4----------------|
|--5----------------------------------7------------4----------------|
|--3----------------------------------7------------2----------------|
|-------------------------------------5-----------------------------||






SOLO:

|-----------------------------------------------------------------------|
|-8~-----------7--8--7--------------------------------------------------|
|------------9------------9---------------------------------------------|
|-----------------------------10b11---7~-----7--9---10~----9-10-9~------|
|-----------------------------------------------------------------------|
|-----------------------------------------------------------------------|



|-----------------------------------------------------------------------|
|---------7--8--7-------------------------------------------------------|
|-------9-----------9---------------------------------------------------|
|-----------------------10b11---7~---------9---10-----------------------|
|-------------------------------------------------------10~-------------|
|-----------------------------------------------------------------------|


|-----------------------------------------------------------------------|
|-0--0----0-----0--0----0-----------------------------------------------|
|-9--9----7-----9--9----7-----7s9----9----------------------------------|
|--------------------------------------------910b11r10p9--7------------|
|------------------------------------------------------------------97--|
|-----------------------------------------------------------------------|


|-----------------------------------------------------------------------|
|-0--0----0-----0--0----0-----------------7--810~-----8---7------------|
|-9--9----7-----9--9----7-----7s9-----9---------------------------7~----|
|-----------------------------------------------------------------------|
|-----------------------------------------------------------------------|
|-----------------------------------------------------------------------||


SONG ORDER:
                INTRO (2X)
                VERSE (1X)
                CHORUS (2X)
                VERSE (1X)
                CHORUS (2X)
                SOLO
                CHORUS


End

This is one of my first tabs. The whole thing was done by ear with no books
or anything so Im sure it is not 100% correct. The song was hard to hear
because of the recording of R2R so some parts are as accurate as I could
 get them.  Hopefully you enjoy this tab and if you have any corrections
or comments, my email address is: chaset10@msn.com.

  Visit MetalTabs.com for more metal tablature

bottom separator

Contact Us | Privacy Policy | Disclaimer
Copyright © 2001-2014 MetalTabs.com. All Rights Reserved.