top separator

Home

Forum

What's New

Submit a Tab

FAQ

Links

Contact Us

Link to Us

MetalTabs.com logo

Bands

0-9

A

B

C

D

E

F

G

H

I

J

K

L

M

N

O

P

Q

R

S

T

U

V

W

X

Y

Z

Search

What

Where
 

Deranged - "Injected By Filth" Guitar Tab

Plain Text Version
More Deranged Tabs

Hits: 2492
Updated: 2004-04-07 11:06:22

 

By:

sendpm.gif

email.gif

Important note
This tab is available online because we obtained explicit permission from Deranged or their label.


#----------------------------------PLEASE NOTE---------------------------------#
#This file is the author's own work and represents their interpretation of the #
#song. You may only use this file for private study, scholarship, or research. #
#Unless specified otherwise, this is NOT an official tab from the band members.#
#------------------------------------------------------------------------------#

  Visit MetalTabs.com for more metal tablature
  
Tuning  B E A D F# b


       Riff 1 X4
|-------------------------------|
|-------------------------------|
|-------------------------------|
|-----5h6-----5h6-----5h6-----6-|
|-----------------------------6-|
|-000-----000-----000-----000-4-|
  ...     ...     ...     ...



     Riff 2 X2
|--------------|
|--------------|
|--------------|
|-5------------|
|--------------|
|---5"--3"--2"-|
    .   .   .



      Riff 1 X4



     Riff 3 X2
|-------------------------------|
|-------------------------------|
|-------------------------------|
|-----5h8-----5h8-----5h8-----6-|
|-----------------------------6-|
|-000-----000-----000-----000-4-|
  ...     ...     ...     ...



  Fill 1
|--------|
|--------|
|--------|
|-5------|
|-5------|
|-3------|



      Riff 1 X8




     Riff 4a X2
|----------------------------------------------------|
|----------------------------------------------------|
|----------------------------------------------------|
|-5------------5------------5------------5----7"--8"-|
|----------------------------------------------------|
|---5"--3"--2"---5"--3"--2"---5"--3"--2"---3"--------|
    .   .   .    .   .   .    .   .   .    .



     Riff 4b X2
|-----------------------------------------------------|
|-----------------------------------------------------|
|-----------------------------------------------------|
|-7------------7------------7------------7----9"--10"-|
|-----------------------------------------------------|
|---7"--5"--4"---7"--5"--4"---7"--5"--4"---5"---------|
    .   .   .    .   .   .    .   .   .    .


         Riff 1 X4

         Riff 4a X3

         Riff 4b X2

         Riff 1 X1


  Fill 1
|--------|
|--------|
|--------|
|-5------|
|-5------|
|-3------|




  Fill 2 X2
|----------|
|----------|
|----------|
|-6-5------|
|-6-5------|
|-4-3------|




     Riff 1 X4

     Fill 1 with break

     Riff 1 X4

     Fill 1 with break


Good Luck!!

  Visit MetalTabs.com for more metal tablature

bottom separator

Contact Us | Privacy Policy | Disclaimer | Legal Notice
Copyright © 2001-2014 MetalTabs.com. All Rights Reserved.