#----------------------------------PLEASE NOTE---------------------------------#
#This file is the author's own work and represents their interpretation of the #
#song. You may only use this file for private study, scholarship, or research. #
#Unless specified otherwise, this is NOT an official tab from the band members.#
#------------------------------------------------------------------------------#

  Visit MetalTabs.com for more metal tablature
  
Band:  (WITHERED EARTH)
Album: (OF WHICH THEY BLEED)
Song:  (CALCULATED TO CREATE TERROR)

Copyright (c)  (OLYMPIC RECORDINGS/CENTURY MEDIA) (2003)
Version 1.0 - (4-3-04)

Transcribed By: (BestialWarrior)
Email:          (Bestialson2003@yahoo.com)


.  - palm mute           /  - slide up to
\  - slide down to       ~  - vibrato
h  - hammer on           b  - Bend
p  - pull off            Suffixes for bend
t  - tap                 f  - full bend    h - half bend
ph - pinched harmonic    q  - quarter bend t - tap bend
*  - see comment         ^  - Hold bend    r release bend
x  - Stuccatto           ~  - vibrato bend
,  - slight palm mute    () - ghost note, sustained note
"  - tremolo note        <> - Trill
As Requested.             AH- Artificial Harmonic

Tunning : Two steps down
Tune low to high:
6=C 5=F 4=Bf 3=Ef 2=G 1=C

Riff#1.(Repeat 4 times)
|----------------||
|----------------||
|----------------||
|2--2--2---------||
|2--2--2---------||
|0--0--0--0-0-0--||
          . . .

Riff#2.(Repeat 4 times)
|----------------||
|----------------||
|----------------||
|9--9--9---------||
|7--7--7---------||
|---------0-0-0--||

Riff#3.
|--------------------------------------------------------------
|--------------------------------------------------------------
|--------------------------------------------------------------
|--------------------------------------------------------------
|7--7--7-557788775577-7--7--7-557788775577-7--7--7-557788775577
|0--0--0--------------0--0--0--------------0--0--0-------------

Riff#3, continued..
|---------------||
|---------------||
|---------------||
|---------------||
|9--7--5--7--5--||
|7--5--3--5--3-0||
             . .

Riff#4. Guitar 1.
|---------------------------------------------------------------||
|---------------------------------------------------------------||
|---------------------------------------------------------------||
|9--9--9---------9--9--9---------9--9--9------------------------||
|7--7--7---------7--7--7---------7--7--7---------9--7--5--7--5--||
|---------0-0-0-----------0-0-0-----------0-0-0--7--5--3--5--3-0||
                                                             . .
Riff#4, Guitar 2.
|---------------------------------------------------------------||
|----------p---------------p---------------p--------------------||
|---------9/7-------------9/7-------------9/7-------------------||
|9--9--9------9--9--9--9------9--9--9--9------9-----------------||
|7--7--7---------7--7--7---------7--7--7---------9--7--5--7--5--||
|------------------------------------------------7--5--3--5--3-0||
                                                             . .
Transition A.
|--------------------------------------------------------||
|--------------------------------------------------------||
|--------------------------------------------------------||
|2--2--2---------2--2--2---------2--2--2---------2--2----||
|2--2--2---------2--2--2---------2--2--2---------2--2--3-||
|0--0--0--0-0-0--0--0--0--0-0-0--0--0--0--0-0-0--0--0--3-||
          . . .           . . .           . . .       (ah)

Riff#5.(Play 5X).Fast.                   Fill.
|-----------------------|-------------|---------||
|-----------------------|-------------|---------||
|-----------------------|-------------|---------||
|-----------------------|-------------|---------||
|2-------2-------2------|-4/5-5-4/5-5-|4/5-5-3~-||
|0-0-0-0-0-0-0-0-0-0-0-0|-2/3-3-2/3-3-|2/3-3----||
   . . .   . . .   . . .

Riff#6. (Play 2X).Fast.                Fill.
|-----------------------|-----------|---------||
|-----------------------|-----------|---------||
|-----------------------|-----------|---------||
|2-------2-------2------|4/5-5-4/5-5|---------||
|2-------2-------2------|4/5-5-4/5-5|4/5-5-3~-||
|0-0-0-0-0-0-0-0-0-0-0-0|-----------|2/3-3----||
   . . .   . . .   . . .

Riff#7.(Play 4X).Tremolo picking where indicated.
|----------------------------||
|----------------------------||
|----------------------------||
|7-----6---------------------||
|5--8--4--7--______________||
|---6-----5--5555222244440000||
 .  .  .  .

Riff#8.(Play 2X).
|--------------------------------------|--|
|--------------------------------------|--|
|--------------------------------------|--|
|----------------------------3---------|2-|
|-h-p-h--3--h-p-h--2--h-p-h-----h-p-h--|--|
|0/1\0/1---0/1\0/1---0/1\0/1---0/1\0/1-|--|

             Fill..
|-----------------------------------------------||
|---------h-----------h-----------h-----------h-||
|-----h--2/4------h--4/6------h--2/4------h--4/6||
|-h--2/4------h--4/6------h--2/4------h--4/6----||
|2/4---------4/6---------2/4---------4/6--------||
|-----------------------------------------------||

Riff#9.Fast..
|---------------------------------------------------||
|---------------------------------------------------||
|4------5--4------7--4--5--4------7--4------9--5--7-||
|2------3--2------5--2--3--2------5--2------7--3--5-||
|2------3--2------5--2--3--2------5--2------7--3--5-||
|--0000------0000------------0000------0000---------||
   ....      ....            ....      ....

Transition B. Fast Tremolo picking.(#of notes not exact.)
|---------------------------------------------------||
|---------------------------------------------------||
|---------------------------------------------------||
|---------------------------------------------------||
|-------------------------------------------------"||
|0-0-0-0-0-0-0-0-0-0-0-0-0-0-0-0-0-0-0-0-0-0-0-0-0-0||

Repeat Riff#9(1X).
Repeat Transition B.
Repeat Riff#9(4X).

Final Riff. Fast Tremolo picking/Slight P.M. where indicated..
(#of notes is not exact.)
|---------------------------------------------------
|---------------------------------------------------
|---------------------------------------------------
|---------------------------------------------------
|-------------------------------------------------"
|0-0-0-0-0-0-0-0-0-0-0-0-0-0-0-0-0-0-0-0-0-0-0-0-0-0

Final Riff, Continued..Slight P.M.
|---------------------------------------------------||
|---------------------------------------------------||
|---------------------------------------------------||
|"-------------------------------------------------"||
|8-8-8-8-8-8-8-8-8-8-8-8-8-8-8-8-8-8-8-8-8-8-8-8-8-8||
|---------------------------------------------------||
 , , , , , , , , , , , , , , , , , , , , , , , , , ,

End chord.
|-----||
|-----||
|-----||
|-----||
|2----||
|0----||

End.

  Visit MetalTabs.com for more metal tablature