top separator

Home

Forum

What's New

Submit a Tab

FAQ

Links

Contact Us

Link to Us

MuSpy.com

MetalTabs.com logo

Bands

0-9

A

B

C

D

E

F

G

H

I

J

K

L

M

N

O

P

Q

R

S

T

U

V

W

X

Y

Z

Search

What

Where
 

Inquisition (CO) - "Those Of The Night" Guitar Tab

Plain Text Version
More Inquisition (CO) Tabs

Hits: 4042
Rated: 3.00 out of 5 (4 votes)
Updated: 2005-03-10 16:14:17

 

By:

EZURATE

sendpm.gif

email.gif

Important note
We did our best to reach Inquisition (CO) and ask for their permission to publish this tab. Unfortunately they did not respond to our requests or we could not find a way to contact them. This tab is available online until Inquisition (CO) tells us to take it down.


#----------------------------------PLEASE NOTE---------------------------------#
#This file is the author's own work and represents their interpretation of the #
#song. You may only use this file for private study, scholarship, or research. #
#Unless specified otherwise, this is NOT an official tab from the band members.#
#------------------------------------------------------------------------------#

  Visit MetalTabs.com for more metal tablature
  
Band:  INQUISITION
Song:  THOSE OF THE NIGHT
Album: INTO THE INFERNAL REGIONS OF THE ANCIENT CULT
Label: SYLPHORIUM RECORDS (1997)

Transcribed By: Tony Baranowski (ezurate@sbcglobal.net)
Version 1.0 - April 03, 2004
Version 2.2 - December 08, 2004

Notation:
> = sforzando
^ = slight palm muting
( = sustained/ghost note
p = pull-off
~ = exaggerated vibrato
{ = reverse rake

Tuning: D/G/C/F/A/D

      F5  E5
      1   +   2 +   3   +   4 +
||----Intro------------------------||
||o-------------------------------o||
||---------------------------------||
||---------------------------------||
||o---3-p-2---2-2---3-p-2---2-2---o||
||----1-p-0---0-0---1-p-0---0-0----||

      F5  E5                                    Em
                                                1,2,3__________
      1   +   2 +   3   +   4 +   1   +   2 +   3 e + a 4 e + a
||----Riff-A--------------------|-------------|---------0---------||
||o-----------------------------|-------------|-------0---0------o||
||------------------------------|-------------|-----0-------0-----||
||------------------------------|-------------|---2-----------2---||
||o---3-p-2---2-2---3-p-2---2-2-|-3-p-2---2-2-|-2----------------o||
||----1-p-0---0-0---1-p-0---0-0-|-1-p-0---0-0-|-------------------||

  Em
  4__________________________________________________
  3 e + a 4 e + a     1 e + a 2 e + a 3 e + a 4 e + a
|---------0---------|---------0---------------0--------|
|-------0---0-------|-------0---0-----------0---0------|
|-----0-------0-----|-----0-------0-------0-------0----|
|---2-----------2---|---2-----------2---2-----------2--|
|-2-----------------|-2---------------2----------------|
|-------------------|----------------------------------|

  Em               E5
  4_______________________________
  1 e + a 2 e + a  3 e + a 4 e + a
|---------0-------------------------|
|-------0---0-----------------------|
|-----0-------0---------------------|
|---2-----------2-{2}-----------(2)-|
|-2---------------{2}-----------(2)-|
|-----------------{0}-----------(0)-|

           B5C5A5       D5               F#5G5
      1e+a 2 + a 3e+a 4 + a | 1e+a 2 + a 3  + 4 +
||----Riff-B----------------|------------------------||
||o-------------------------|-----------------------o||
||--------------------------|------------------------||
||---------4-5-2------5-7-4-|------4-5-2------5-4----||
||o--------2-3-0------3-5-2-|------2-3-0-4--5-3-2---o||
||----0000-------0000-------|-0000-------2--3--------||
      ^^^^       ^^^^         ^^^^

                        G5                    F5
      1e+a 2e+a 3e+a 4e+a | 1e+a 2e+a 3e+a 4e+a
||----Riff-C--------------|------------------------||
||o-----------------------|-----------------------o||
||------------------------|------------------------||
||------------------------|------------------------||
||o---------------------5-|-------------------3---o||
||----0010-0030-0010-0003-|-0030-0010-0030-0001----||
      ^^^^ ^^^^ ^^^^ ^^^    ^^^^ ^^^^ ^^^^ ^^^

      Cmaj9                     Cmaj9
      1 + a 2 + a 3 + a 4 + a   1 + a 2 + a 3 + a 4   +
||----Chorus------------------|--------------------------
||o-------0---0-------0---0---|-----0---0-------0--------
||------0-------0---0-------0-|---0-------0---0----------
||----2-----------2-----0-----|-2-----------2------------
||o---------3-----------------|-------3-----------5---3--
||----------------------------|--------------------------
      >     >     >     >       >     >     >     >

   Cmaj9                     Cmaj9
   1 + a 2 + a 3 + a 4 + a   1 + a 2 + a 3 + a 4   +
 --------------------------|----------------------------||
 ------0---0-------0---0---|-----0---0-------0---------o||
 ----0-------0---0-------0-|---0-------0---0------------||
 --2-----------2-----0-----|-2-----------2-----5---4----||
 --------3-----------------|-------3-------------------o||
 --------------------------|----------------------------||
   >     >     >     >       >     >     >     >

      1   2   3   4    1   2   3   4
||----Outro-I--------|-------------------||
||o------------------|------------------o||
||-------------------|-------------------||
||----5~--4~--5~-----|-------------------||
||o---------------5~-|-3~---------------o||
||-------------------|-----0------(0)----||

      1 + 2  +  3 + 4 +
||----Outro-II--------------||
||o------------------------o||
||-----------0--------------||
||----5-4-5-(5)-------------||
||o-------------2----(2)---o||
||--------------0----(0)----||

    Em9             Em9            Em9             Em9
    1 2 + 3 + 4 + | 1 2 + 3 + 4 + | 1 2 + 3 + 4 + | 1 2 + 3 + 4 +
|---Outro-III-----|---------------|---------------|-----------------|
|-----------0-----|---------0-----|---------0-----|---------0-------|
|---------0---0---|-------0---0---|-------0---0---|-------0---0-----|
|-----4--------(4)|---4--------(4)|---4--------(4)|---4--------(4)--|
|-------2---------|-----2---------|-----2---------|-----2-----------|
|---0-------------|-0-------------|-0-------------|-0---------------|
    >               >               >               >

    Fmaj7           Fmaj7           Fmaj7           Fmaj7
    1 2 + 3 + 4 +   1 2 + 3 + 4 +   1 2 + 3 + 4 +   1 2 + 3 + 4 +
|-----------0-----|---------0-----|---------0-----|---------0-------|
|---------1---1---|-------1---1---|-------1---1---|-------1---1-----|
|-----2--------(2)|---2--------(2)|---2--------(2)|---2--------(2)--|
|-------3---------|-----3---------|-----3---------|-----3-----------|
|---3-------------|-3-------------|-3-------------|-3---------------|
|-----------------|---------------|---------------|-----------------|
    >               >               >               >

    G6              G6              G6              G6
    1 2 + 3 + 4 +   1 2 + 3 + 4 +   1 2 + 3 + 4 +   1 2 + 3 + 4 +
|-----------0-----|---------0-----|---------0-----|---------0-------|
|---------3---3---|-------3---3---|-------3---3---|-------3---3-----|
|-----4--------(4)|---4--------(4)|---4--------(4)|---4--------(4)--|
|-------5---------|-----5---------|-----5---------|-----5-----------|
|---5-------------|-5-------------|-5-------------|-5---------------|
|-----------------|---------------|---------------|-----------------|
    >               >               >               >

    Fmaj7           Fmaj7           Fmaj7           Fmaj7
    1 2 + 3 + 4 +   1 2 + 3 + 4 +   1 2 + 3 + 4 +   1 2 + 3 + 4 +
|-----------0-----|---------0-----|---------0-----|---------0-------|
|---------1---1---|-------1---1---|-------1---1---|-------1---1-----|
|-----2--------(2)|---2--------(2)|---2--------(2)|---2--------(2)--|
|-------3---------|-----3---------|-----3---------|-----3-----------|
|---3-------------|-3-------------|-3-------------|-3---------------|
|-----------------|---------------|---------------|-----------------|
    >               >               >               >

    Em9             Em9             Em9             Em9
    1 2 + 3 + 4 + | 1 2 + 3 + 4 + | 1 2 + 3 + 4 + | 1 2 + 3 + 4 +
|-----------------|---------------|---------------|-----------------|
|-----------0-----|---------0-----|---------0-----|---------0-------|
|---------0---0---|-------0---0---|-------0---0---|-------0---0-----|
|-----4--------(4)|---4--------(4)|---4--------(4)|---4--------(4)--|
|-------2---------|-----2---------|-----2---------|-----2-----------|
|---0-------------|-0-------------|-0-------------|-0---------------|
    >               >               >               >

    Fmaj7           Fmaj7           Fmaj7           Fmaj7
    1 2 + 3 + 4 +   1 2 + 3 + 4 +   1 2 + 3 + 4 +   1 2 + 3 + 4 +
|-----------0-----|---------0-----|---------0-----|---------0-------|
|---------1---1---|-------1---1---|-------1---1---|-------1---1-----|
|-----2--------(2)|---2--------(2)|---2--------(2)|---2--------(2)--|
|-------3---------|-----3---------|-----3---------|-----3-----------|
|---3-------------|-3-------------|-3-------------|-3---------------|
|-----------------|---------------|---------------|-----------------|
    >               >               >               >

    G6              G6              G6              G6
    1 2 + 3 + 4 +   1 2 + 3 + 4 +   1 2 + 3 + 4 +   1 2 + 3 + 4 +
|-----------0-----|---------0-----|---------0-----|---------0-------|
|---------3---3---|-------3---3---|-------3---3---|-------3---3-----|
|-----4--------(4)|---4--------(4)|---4--------(4)|---4--------(4)--|
|-------5---------|-----5---------|-----5---------|-----5-----------|
|---5-------------|-5-------------|-5-------------|-5---------------|
|-----------------|---------------|---------------|-----------------|
    >               >               >               >

    Fmaj7           Fmaj7           Fmaj7           Fmaj7
    1 2 + 3 + 4 +   1 2 + 3 + 4 +   1 2 + 3 + 4 +   1 2 + 3 + 4 +
|-----------0-----|---------0-----|---------0-----|---------0-------|
|---------1---1---|-------1---1---|-------1---1---|-------1---1-----|
|-----2--------(2)|---2--------(2)|---2--------(2)|---2--------(2)--|
|-------3---------|-----3---------|-----3---------|-----3-----------|
|---3-------------|-3-------------|-3-------------|-3---------------|
|-----------------|---------------|---------------|-----------------|
    >               >               >               >

    Em9             Em9             Em9             Em9
    1 2 + 3 + 4 + | 1 2 + 3 + 4 + | 1 2 + 3 + 4 + | 1 2 + 3 + 4 +
|-----------------|---------------|---------------|-----------------|
|-----------0-----|---------0-----|---------0-----|---------0-------|
|---------0---0---|-------0---0---|-------0---0---|-------0---0-----|
|-----4--------(4)|---4--------(4)|---4--------(4)|---4--------(4)--|
|-------2---------|-----2---------|-----2---------|-----2-----------|
|---0-------------|-0-------------|-0-------------|-0---------------|
    >               >               >               >

    Em9             Em9             Em9             Em9
    1 2 + 3 + 4 + | 1 2 + 3 + 4 + | 1 2 + 3 + 4 + | 1 2 + 3 + 4 +
|-----------------|---------------|---------------|-----------------|
|-----------0-----|---------0-----|---------0-----|---------0-------|
|---------0---0---|-------0---0---|-------0---0---|-------0---0-----|
|-----4--------(4)|---4--------(4)|---4--------(4)|---4--------(4)--|
|-------2---------|-----2---------|-----2---------|-----2-----------|
|---0-------------|-0-------------|-0-------------|-0---------------|
    >               >               >               >

    Em9             Em9             Em9             Em9
    1 2 + 3 + 4 + | 1 2 + 3 + 4 + | 1 2 + 3 + 4 + | 1 2 + 3 + 4 +
|-----------------|---------------|---------------|----------------||
|-----------0-----|---------0-----|---------0-----|---------0------||
|---------0---0---|-------0---0---|-------0---0---|-------0---0----||
|-----4--------(4)|---4--------(4)|---4--------(4)|---4--------(4)-||
|-------2---------|-----2---------|-----2---------|-----2----------||
|---0-------------|-0-------------|-0-------------|-0--------------||
    >               >               >               >

Full Score Arrangement:
Intro:     4x
Riff A:    4x
Riff B:    2x
Riff C:    2x
Riff B:    2x
Riff C:    2x
Riff B:    2x
Chorus:    2x
Riff A:    4x
Riff B:    2x
Riff C:    2x
Riff B:    2x
Riff C:    2x
Riff B:    2x
Chorus:    2x
Outro I:   4x
Outro II:  4x
Outro III: 1x

*Transcriber's note:
"Shuffle rhythm throughout"

  Visit MetalTabs.com for more metal tablature

bottom separator

Contact Us | Privacy Policy | Disclaimer | Legal Notice
Copyright © 2001-2014 MetalTabs.com. All Rights Reserved.