top separator

Home

Forum

What's New

Submit a Tab

FAQ

Links

Contact Us

Link to Us

MuSpy.com

MetalTabs.com logo

Bands

0-9

A

B

C

D

E

F

G

H

I

J

K

L

M

N

O

P

Q

R

S

T

U

V

W

X

Y

Z

Search

What

Where
 

Aborted - "Sanguine Verses (...of Extirpation)" Guitar Tab

Plain Text Version
More Aborted Tabs

Hits: 6062
Rated: 4.33 out of 5 (3 votes)
Updated: 2004-04-07 11:00:52

 

By:

BestialWarrior

sendpm.gif

email.gif

Important note
This tab is available online because we obtained explicit permission from Aborted or their label.


#----------------------------------PLEASE NOTE---------------------------------#
#This file is the author's own work and represents their interpretation of the #
#song. You may only use this file for private study, scholarship, or research. #
#Unless specified otherwise, this is NOT an official tab from the band members.#
#------------------------------------------------------------------------------#

  Visit MetalTabs.com for more metal tablature
  
Band:  (ABORTED)
Album: (GOREMAGEDDON: THE SAW AND CARNAGE DONE)
Song:  (SANGUINE VERSES(...OF EXTIRPATION)

Copyright (c)  (OLYMPIC RECORDINGS) (2003)
Version 1.0 - (3-31-04)

Transcribed By: (BestialWarrior)
Email:           Bestialson2003@yahoo.com


.  - palm mute           /  - slide up to
\  - slide down to       ~  - vibrato
h  - hammer on           b  - Bend
p  - pull off            Suffixes for bend
t  - tap                 f  - full bend    h - half bend
ph - pinched harmonic    q  - quarter bend t - tap bend
*  - see comment         ^  - Hold bend    r release bend
x  - Stuccatto           ~  - vibrato bend
,  - slight palm mute    () - ghost note, sustained note
"  - tremolo note        <> - Trill
G  - Gallop               S - Sustained note/chord.
nh - Natural harmonic

Tunning : TUNE LOW TO HIGH:
6=B 5=E 4=A 3=D 2=F# 1=B

Riff#1.Fast Down stroke picking.  (2 times)         Fill.
|--------------------|---------------|-------------------||
|--------------------|---------------|-------------------||
|--------------------|---------------|-------------------||
|3-------------------|3--------------|3------------------||
|1-----5-------------|1-----5-----4-3|1-----5-------3(nh)||
|--0-0-3-0-0-3-2-1-0-|--0-0-3-0-0-2-1|--0-0-3-0-0-1------||
   . .   . . . . . .    . .   . . . .   . .   . . .

Riff#2.Fast. (2times)
|----------------------------------------------------
|----------------------------------------------------
|"---------"-------------"---------------------------
|2----"----3----"--------2----"----3"----"-----------
|-----3---------4----4-3------3----------4------3(nh)
|--------------------2-1----------------------1------
                     . .                      .
Riff#2, Continued.
|-------------------------------------------------||
|-------------------------------------------------||
|"------------------------"---------"-------------||
|2----"----3"----"--------2----"----3---"---------||
|-----3----------4----4-3------3---------4----4-3-||
|---------------------2-1---------------------2-1-||
                      . .                     . .

Riff#3.Note:(Play up to the asterisk on the 2nd time).
                                             Fill.
|--------------------------------|--------|--------||
|--------------------------------|--------|--------||
|----------------------------(*)-|--------|--------||
|--2-----2--------------2-----2--|-5-4----|-7-6----||
|3---3-4---4----------3---3-4---4|-3-2-5--|-5-4-6--||
|------------222--111------------|-----3--|-----4--||
 . . . . . . ...  ... . . . . . .
              G    G

Riff#4.Fast tremolo picking..(4 times)
|----------------------------------------------------------------||
|----------------------------------------------------------------||
|----------------------------------------------------------------||
|"---"---"---"---"---"---"---"---"---"---"---"---"---"---"---"---||
|0---6---0---6---0---7---0---7---0---5---0---5---0---6---0---6---||
|----------------------------------------------------------------||

Repeat Riff#1.

Riff#5A.Mid-pace tempo.(1 time)
|---------------------------------------------------------------||
|---------------------------------------------------------------||
|---------------------------------------------------------------||
|---------------------------------------------------------------||
|6-5-------------6-5---6-5---3-5-6-5----------------------------||
|4-3-0-0-0-0-0-0-4-3-0-4-3-0-1-3-4-3-0-0-0-0-0-0-000-0-000-0-000||
     . . . . . .     .     .         . . . . . . ... . ... . ...
                                                  G     G     G
Riff#5B.(1 time)
|----------------------------------------------------------||
|----------------------------------------------------------||
|----------------------------------------------------------||
|----------------------------------------------------------||
|6-5-------------6-5---6-5---3-5-6-5-----------------------||
|4-3-0-0-0-0-0-0-4-3-0-4-3-0-1-3-4-3-0-0-0-0-0-0-000-0-0-0-||
     . . . . . .     .     .         . . . . . . ... . .

Repeat#5A.(2 times)

Riff#5C.Mid-pace tempo.(2 times)
|---------------------------------------------------------------||
|---------------------------------------------------------------||
|---------------------------------------------------------------||
|---------------------------------------------------------------||
|6-5-------------6-5---6-5---3-5-6-5----------------------------||
|----0-0-0-0-0-0-----0-----0---------0-0-0-0-0-0-000-0-000-0-000||
     . . . . . .     .     .         . . . . . . ... . ... . ...
                                                  G     G     G

Riff#6.Fast tremolo picking/Solo Riff.(4 times)
|--------------------------------------------------------------------||
|--------------------------------------------------------------------||
|--------------------------------------------------------------------||
|-----------------"---------------------------------"----------------||
|"----------------3----------------"----------------6----------------||
|0----------------1----------------0----------------4----------------||

Transition A.
|-||
|-||
|-||
|-||
|-||
|0||

Transition: Drum Roll..

Riff#7.Mid-Pace tempo.  (2 times)                           Fill.
|-------------------------------------------|------------|---------||
|-------------------------------------------|------------|---------||
|-------------------------------------------|------------|---------||
|-------------------------2-----------------|------8--7--|7--6--5--||
|----------4-3------------0-3------------4-3|------6--5--|5--4--3--||
|111--111--2-1--111--111----1--111--111--2-1|-111--6--5--|5--4--3--||
 ...  ...       ...  ...       ...  ...  . .  ...
  G    G         G    G         G    G         G

Repeat Riff#1.

End Chord.
|--||
|--||
|--||
|--||
|2-||
|0-||

Order of Riffs and #of times played.:
Riff#1: 2 times
Riff#2: 2 times
Riff#3: 2 times
Riff#4: 4 times
Riff#1: 2 times
Riff#5A: 1 time
Riff#5B: 1 time
Riff#5A: 2 times
Riff#5C: 2 times
Riff#6: 4 times
Riff#7: 2 times
Riff#1: 2 times
End Chord.

End.

Note:My First Aborted tune.  I took my time with it, so it should be
pretty accurate.  If not, email me with corrections,etc.  I'll
update everything then.  The only riff I really had a hard time
with was Riff#4..It sounds like maybe the other guitar is playing
something else as well, but in any case, I put down what I
thought I heard.  Enjoy the tune!..

  Visit MetalTabs.com for more metal tablature

bottom separator

Contact Us | Privacy Policy | Disclaimer | Legal Notice
Copyright © 2001-2014 MetalTabs.com. All Rights Reserved.