top separator

Home

Forum

What's New

Submit a Tab

FAQ

Links

Contact Us

Link to Us

MetalTabs.com logo

Bands

0-9

A

B

C

D

E

F

G

H

I

J

K

L

M

N

O

P

Q

R

S

T

U

V

W

X

Y

Z

Search

What

Where
 

Sleep - "Dragonaut" Guitar Tab

Plain Text Version
More Sleep Tabs

Hits: 20373
Rated: 4.00 out of 5 (11 votes)
Updated: 2004-04-07 10:56:14

 

By:

sendpm.gif

email.gif

Important note
This tab is available online because we obtained explicit permission from Sleep or their label.


#----------------------------------PLEASE NOTE---------------------------------#
#This file is the author's own work and represents their interpretation of the #
#song. You may only use this file for private study, scholarship, or research. #
#Unless specified otherwise, this is NOT an official tab from the band members.#
#------------------------------------------------------------------------------#

  Visit MetalTabs.com for more metal tablature
  
Band: Sleep
Song: Dragonaut
Album: Sleep's Holy Mountain

Keys:
  b  - bend
  r  - release bend
 / \ - slide
  h  - hammer-on
 ___ - palm mute
  x  - mute
  p  - pull off
  "  - tremelo pick
  ph - pinch harmonic
  ~  - vibrato

Trascribed by Haggard Bastard (throughdeathandcrimson@hotmail.com)

Tune down to C (2 steps)

Intro Riff (lightly distorted first 6 times, distorted last 4) x 10
|-------------------------------------------------------|
|-------------------------------------------------------|
|-------h-----5--------h----------h-------------h-------|
|------5-7------7-5---5-7--------5-7--------5---5-7-----|
|-3~-0-------0------7------3~-0------0-5-6b---7---------|
|-------------------------------------------------------|

Riff A x 6
|-------------------------------------------------------|
|-------------------------------------------------------|
|-------------------------------------------------------|
|---------------------------------------------/16-15-14-|
|-7--7--7--7--7--7--5-7-8-7-5--7--7--7--7--7--/14-13-12-|
|-0--0--0--0--0--0--0-0-0-0-0--0--0--0--0--0------------|

Riff B x 4
|----------------------------------------------------------|
|----------------------------------------------------------|
|----------------------------------------------------------|
|-7/9--9~-9~------7/9--9~-9~------7/9--9~-9~---------------|
|-5/7--7~-7~-2-2--5/7--7~-7~-2-2--5/7--7~-7~-2-2--9-8--8-7-|
|------------0-0-------------0-0-------------0-0--7-6--6-5-|

Riff A x 4
|-------------------------------------------------------|
|-------------------------------------------------------|
|-------------------------------------------------------|
|---------------------------------------------/16-15-14-|
|-7--7--7--7--7--7--5-7-8-7-5--7--7--7--7--7--/14-13-12-|
|-0--0--0--0--0--0--0-0-0-0-0--0--0--0--0--0------------|

Section C x 3
Riff C.1 (First time play the power chords as only root notes (i.e. 7 and 5)
|------------------------------------------|
|------------------------------------------|
|------------------------------------------|
|------9---7---9---7---9---------5---------|
|------7---5---7---5---7-----------7-5-----|
|-0--0---0---0---0---0---0--5-6-7----------|

Riff C.2
|-----------------------------------------------|
|-----------------------------------------------|
|-----------------------------------------------|
|------9---7---9----------------5---------------|
|------7---5---7----------7-5-----7-5---5-7-----|
|-0--0---0---0---0--5-6-7-----7-------7---------|

Riff C.3
|------------------------------------------|
|------------------------------------------|
|------------------------------------------|
|------9---7---9---7---9-------------------|
|------7---5---7---5---7-------------------|
|-0--0---0---0---0---0---0--5-6-5--3-5-3---|

Riff C.2
|-----------------------------------------------|
|-----------------------------------------------|
|-----------------------------------------------|
|------9---7---9----------------5---------------|
|------7---5---7----------7-5-----7-5---5-7-----|
|-0--0---0---0---0--5-6-7-----7-------7---------|

Riff A x 4
|-------------------------------------------------------|
|-------------------------------------------------------|
|-------------------------------------------------------|
|---------------------------------------------/16-15-14-|
|-7--7--7--7--7--7--5-7-8-7-5--7--7--7--7--7--/14-13-12-|
|-0--0--0--0--0--0--0-0-0-0-0--0--0--0--0--0------------|

After this, there's the guitar solo which I don't feel like figuring out
at the moment, and a bass solo, for which the same goes.

  Visit MetalTabs.com for more metal tablature

bottom separator

Contact Us | Privacy Policy | Disclaimer | Legal Notice
Copyright © 2001-2014 MetalTabs.com. All Rights Reserved.