#----------------------------------PLEASE NOTE---------------------------------#
#This file is the author's own work and represents their interpretation of the #
#song. You may only use this file for private study, scholarship, or research. #
#Unless specified otherwise, this is NOT an official tab from the band members.#
#------------------------------------------------------------------------------#

  Visit MetalTabs.com for more metal tablature
  
Band:  Acid Bath
Album: When The Kite String Pops
Song:  Finger Paintings of The Insane

Copyright  ©        Rotten Records 1994
Transcribed By: Herbmeister420
Email:                Herbmeister420@bandhunt.com

.=palm mute
h=hammer on
()=harmonics

Tuning  CGCFAD
Riff 1 Verse
|-----------------------------------------------------------------|
|-----------------------------------------------------------------|
|-----------------------------------------------------------------|
|-----------------------------------------------------------------|
|---5-5-5---555-5---5-5-5---555-5---6-6-6---666-6---5-5-5---5-5-5-|
|-0-------0-------0-------0-------0-------0-------6-------5-------|
  . . . . . ... . . . . . . ... . . . . . . ... . . . . . . . . .
Riff 2 Pre-Chorus
|----------------------------------------------------------------------|
|----------------------------------------------------------------------|
|----------------------------------------------------------------------|
|-0-7-7-7-0-8-8-8-0-7-7-7(5-5-5--5-5-5)-0-7-7-7-0-8-8-8-0-7-7-7--5-4-3-|
|-0-7-7-7-0-8-8-8-0-7-7-7(5-5-5--5-5-5)-0-7-7-7-0-8-8-8-0-7-7-7--5-4-3-|
|-0-7-7-7-0-8-8-8-0-7-7-7(5-5-5--5-5-5)-0-7-7-7-0-8-8-8-0-7-7-7--5-4-3-|
  .       .       .                     .       .       .
Riff 3 Chorus
|-------------------------------------------------|
|-------------------------------------------------|
|-------------------------------------------------|
|-------------------------------------------------|
|-0-5h6-0-4h5-0-7h8-5-4-3-0-5h6-0-4h5-0-7h8-6-5-4-|
|-0-5h6-0-4h5-0-7h8-5-4-3-0-5h6-0-4h5-0-7h8-6-5-4-|
  .     .     .     . . . .     .     .     . . .
After Chorus Fill (Not exactly sure about this part but itís close)
|----------------------------------------------------------------------
|----------------------------------------------------------------------
|----------------------------------------------------------------------
|-9-8-7---10-9---7-6-8-9-9-10-11-10--9-8-7---10-9---7-6-8-9-9-10-11-10-
|-7-6-5-0--8-7-0-5-4-6-7-7--8--9--8--7-6-5-0--8-7-0-5-4-6-7-7--8--9--8-
|----------------------------------------------------------------------

---------------------|
---------------------|
---------------------|
---12-11-10---10-9-8-|
-0-10--9--8-0--8-7-6-|
---------------------|

Interlude
|---------------------------------------------------------
|---------------------------------------------------------
|---------------------------------------------------------
|---------------------------------------------------------
|-5-5-5-5-5-5-5-5-4--5-5-5-5-5-5-5-5-4--5-5-5-5-5-5-5-5-4-
|-5-5-5-5-5-5-5-5-4--5-5-5-5-5-5-5-5-4--5-5-5-5-5-5-5-5-4ó

-----------------------------------------------------------------------
-----------------------------------------------------------------------
-----------------------------------------------------------------------
-----------------------------------------------------------------------
-5-5-5-5-5-5-5-5-4--6-6-6-6-6-6-6-6-5-5-5-5--6-6-6-6-6-6-6-6-5-5-5-5-
-5-5-5-5-5-5-5-5-4--6-6-6-6-6-6-6-6-5-5-5-5--6-6-6-6-6-6-6-6-5-5-5-5-
                                    . . . .                  . . . .
----------------------------------------------------
----------------------------------------------------
----------------------------------------------------
----------------------------------------------------
-6-6-6-6-6-6-6-6-5-5-5-5--6-6-6-6-6-6-6-6-5-5-5-5-
-6-6-6-6-6-6-6-6-5-5-5-5--6-6-6-6-6-6-6-6-5-5-5-5-
                 . . . .                  . . . .
--------------------------------------------------
--------------------------------------------------
--------------------------------------------------
--------------------------------------------------
-8-8-8-8-8-8-8-8-7-777-7--8-8-8-8-8-8-8-8-7-777-7-
-8-8-8-8-8-8-8-8-7-777-7--8-8-8-8-8-8-8-8-7-777-7-
                   ... .                    ... .
----------------------------------------------------------------------|
----------------------------------------------------------------------|
----------------------------------------------------------------------|
----------------------------------------------------------------------|
10-10-10-10-10-10-10-10-9-9-9-9-9-9-10-10-10-10-10-10-10-10-9-9-9-9-9-|
10-10-10-10-10-10-10-10-9-9-9-9-9-9-10-10-10-10-10-10-10-10-9-9-9-9-9-|
.  .  .  .  .  .  .  .  . . . . . . .  .  .  .  .  .  .  .  . . . . .

  Visit MetalTabs.com for more metal tablature