top separator

Home

Forum

What's New

Submit a Tab

FAQ

Links

Contact Us

Link to Us

MetalTabs.com logo

Bands

0-9

A

B

C

D

E

F

G

H

I

J

K

L

M

N

O

P

Q

R

S

T

U

V

W

X

Y

Z

Search

What

Where
 

Saturnus - "Thus my heart weepeth for thee" Guitar Tab

Plain Text Version
More Saturnus Tabs

Hits: 3881
Rated: 5.00 out of 5 (1 vote)
Updated: 2004-04-04 08:55:39

 

By:

Father Death

sendpm.gif

email.gif

Important note
This tab is available online because we obtained explicit permission from Saturnus or their label.


#----------------------------------PLEASE NOTE---------------------------------#
#This file is the author's own work and represents their interpretation of the #
#song. You may only use this file for private study, scholarship, or research. #
#Unless specified otherwise, this is NOT an official tab from the band members.#
#------------------------------------------------------------------------------#

  Visit MetalTabs.com for more metal tablature
  
Band:  SATURNUS
Album: Martyre
Song:  Thus my Heart Weepeth For Thee

Transcribed by:        Chris Humeniuk
Email:  father_death_666@hotmail.com

Tuning:        1.5 steps down

Keys:
  h  - hammer on
 / \ - slide
  p  - pull off
  x  - mute
  b  - bend
  r  - return


INTRO:

|-------------------------------|
|-12----------------------------|
|---------12------11------------|
|-------------------------------|
|-------------------------------|
|-------------------------------| 4x

|---------------------------------------------------------------|
|-12----------------------------12--------------10--------------|
|---------12------11--------------------12--------------11------|
|---------------------------------------------------------------|
|---------------------------------------------------------------|
|---------------------------------------------------------------| 2x


VERSE: (lots of echo going on, jumbling notes together)

Gtr 1 plays last part of intro 2x

(Gtr 2)
|------------------------------------------|
|-12---------------------------10---10/12--|
|-----11--9----9h11-11----9h11-------------|
|------------------------------------------|
|------------------------------------------|
|------------------------------------------| 4x


RIFF A:
(Gtr 1)
|----------------------------------------------
|----------------------------------------------
|----------------------------------------------
|------7/9--------10\7--------4h5p4-------4h5--
|------------------------5----------3--2-------
|-0----------0---------------------------------

(Gtr 2)
|----------------------------------------------
|-----10/12-------13\10-------7h8p7-------7/8--
|-----------------------------------5----------
|----------------------------------------------
|------------------------5-------------2-------
|-0----------0---------------------------------

(Gtr 1)
 ----------------------------------------------|
 ----------------------------------------------|
 -----------------------------------4--2h4-----|
 ------7/9--------10\7--------4h5-7--------5-4-|
 ------------------------5---------------------|
 -0----------0---------------------------------|

(Gtr 2)
 ----------------------------------------------------|
 -----10/12-------13\10-------7/8-10-12--10h12-------|
 ----------------------------------------------12-11-|
 ----------------------------------------------------|
 ------------------------5---------------------------|
 -0----------0---------------------------------------| 2x


RIFF B:
(Gtr 1)
|---------------------------------------------|
|---------------------------------------------|
|-------4/5---------7/9--------7/9--7\4--7/9--|
|-------x-----------x----------x----x----x----|
|--0----2/3---3-----5/7--------5/7--5\2--5/7--|
|---------------------------------------------|

(Gtr 2)
|---------------------------------------------|
|---------------------------------------------|
|-11\9-------14\12----------------------------|
|--x----------x----------12p9------12p9-------|
|--9\7-------12\10----------------------------|
|---------------------------------------------| 4x


FILL:

|---------------------------------------------------------------|
|-12----------------------------12--------------10--------------|
|---------12------11--------------------12--------------11------|
|---------------------------------------------------------------|
|---------------------------------------------------------------|
|---------------------------------------------------------------|

(Gtr 1)
|---------------------------------------------------------------|
|-12----------------------------12--------------10--------------|
|---------12------11--------------------12--------------11------|
|---------------------------------------------------------------|
|---------------------------------------------------------------|
|---------------------------------------------------------------|

(Gtr 2)
|------------------------------------------|
|-12---------------------------10---10/12--|
|-----11--9----9h11-11----9h11-------------|
|------------------------------------------|
|------------------------------------------|
|------------------------------------------| 2x


RIFF A - 2x


RIFF C:
(Gtr 1)
|--------------------------------------------------
|--------------------------------------------------
|-------4----------4-------------------------------
|--2-------5--2-------5--0----7\4--4----2h4-4br----
|--------------------------------------------------
|--------------------------------------------------

 --------------------------------------------------
 --------------------------------------------------
 -------4----------4----------------------------2--
 --2-------5--2-------5--0----7\4--4----2h4-4-5----
 --------------------------------------------------
 --------------------------------------------------

 --------------------------------------------------
 --------------------------------------------------
 -------4----------4-------------------------------
 --2-------5--2-------5--0----7\4--4----2h4-5p4----
 --------------------------------------------------
 --------------------------------------------------

 --------------------------------------------------|
 --------------------------------------------------|
 -------4----------4----------------------------2--|
 --2-------5--2-------5--0----7\4--4----2h4-4-5----|
 --------------------------------------------------|
 --------------------------------------------------|

(Gtr 2)
|------14-15------14-15----------------------------
|--------------------------------------------------
|-16---------16---------14---14-16-17---16h17-14---
|--------------------------------------------------
|--------------------------------------------------
|--------------------------------------------------

 ------14-15------14-15----------------------------|
 ---------------------------/17-17-----------------|
 -16---------16---------14---------17---16h17-14---|
 --------------------------------------------------|
 --------------------------------------------------|
 --------------------------------------------------| 2x


RIFF B - 4x


INTERLUDE:
(Gtr 1 - clean)
|---0-------0---0---0-------0-------0-------0---0---0-------0-----|
|-----0---------------0-------1-------0---------------0-------1---|
|-----------------------------------------------------------------|
|-2-------4---5---0---------------2-------4---5---0---------------|
|-------------------------3-------------------------------0-------|
|-----------------------------------------------------------------|

(Gtr 2)
|-----------------------------------------------------------------|
|-----------------------------------------------------------------|
|-----------------------------------------------------------------|
|-----------------------------------------------------------------|
|-(7)-------------------------------------------------------------|
|-----------------------------------------------------------------|

(Gtr 1 - clean)
|---0-------0---0---0-------0-------0-------0---0---0-------0----0-|
|-----0---------------0-------1-------0----------------------------|
|------------------------------------------------------------------|
|-2-------4---5---0---------------2-------4---5---7-------9---10---|
|-------------------------3----------------------------------------|
|------------------------------------------------------------------|

(Gtr 2)
|------------------------------------------|
|-12---------------------------10---10/12--|
|-----11--9----9h11-11----9h11-------------|
|------------------------------------------|
|------------------------------------------|
|------------------------------------------| 2x


RIFF D:
(Gtr 1)
|--------------------------------------------------|
|--------------------------------------------------|
|------------------------2---2-2--2-4----4-4-4-4-4-|
|-2---2-2--2-2---2-2--2--0---0-0--0-4----4-4-4-4-4-|
|-2---2-2--2-2---2-2--2--0---0-0--0-2----2-2-2-2-2-|
|-0---0-0--0-0---0-0--0----------------------------| 8x

(Gtr 2)
|------14-15------14-15----------------------------
|--------------------------------------------------
|-16---------16---------14---14-16-17---16h17-14---
|--------------------------------------------------
|--------------------------------------------------
|--------------------------------------------------

 ------14-15------14-15----------------------------|
 ---------------------------/17-17-----------------|
 -16---------16---------14---------17---16h17-14---|
 --------------------------------------------------|
 --------------------------------------------------|
 --------------------------------------------------| 4x

Gtr 3 plays Gtr 1 part from RIFF C with variation on the endings


OUTRO:
(Gtr 1 - clean)
|---0-------0---0---0-------0-------0-------0---0---0-------0-----
|-----0---------------0-------1-------0---------------0-------1---
|-----------------------------------------------------------------
|-2-------4---5---0---------------2-------4---5---0---------------
|-------------------------3-------------------------------0-------
|-----------------------------------------------------------------

(Gtr 2)
|-----------------------------------------------------------------
|-----------------------------------------------------------------
|-(16)------------------------------------------------------------
|-----------------------------------------------------------------
|-----------------------------------------------------------------
|-----------------------------------------------------------------

(Gtr 1 - clean)
 ---0-------0---0---0-------0-------0-------0---0---0-------0----0---------|
 -----0---------------0-------1-------0------------------------------------|
 --------------------------------------------------------------------------|
 -2-------4---5---0---------------2-------4---5---7-------9---10-----------|
 -------------------------3----------------------------------------7-------|
 --------------------------------------------------------------------------|

  Visit MetalTabs.com for more metal tablature

bottom separator

Contact Us | Privacy Policy | Disclaimer | Legal Notice
Copyright © 2001-2014 MetalTabs.com. All Rights Reserved.