top separator

Home

Forum

What's New

Submit a Tab

FAQ

Links

Contact Us

Link to Us

MetalTabs.com logo

Bands

0-9

A

B

C

D

E

F

G

H

I

J

K

L

M

N

O

P

Q

R

S

T

U

V

W

X

Y

Z

Search

What

Where
 

Nile - "Wrought" Guitar Tab

Plain Text Version
More Nile Tabs

Hits: 5613
Rated: 5.00 out of 5 (2 votes)
Updated: 2004-03-24 14:13:38

 

By:

Father Death

sendpm.gif

email.gif

Important note
This tab is available online because we obtained explicit permission from Nile or their label.


#----------------------------------PLEASE NOTE---------------------------------#
#This file is the author's own work and represents their interpretation of the #
#song. You may only use this file for private study, scholarship, or research. #
#Unless specified otherwise, this is NOT an official tab from the band members.#
#------------------------------------------------------------------------------#

  Visit MetalTabs.com for more metal tablature
  
Band:  NILE
Song:  Wrought
Album: In The Beginning

Transcribed by:        Chris Humeniuk
Email:        father_death_666@hotmail.com

Solo's by:        John Mansley
Email:        john@smansley.freeserve.co.uk

Tuning:
strings 1-5 - 2.5 steps down
string    6 - 3.5 steps down

Keys:
  b  - bend
  r  - release bend
 / \ - slide
  h  - hammer-on
 ___ - palm mute
  x  - mute
  p  - pull off
  "  - tremelo pick
  ph - pinch harmonic


INTRO:

|---------------------------------------------------------------------------|
|---------------------------------------------------------------------------|
|---------------------------------------------------------------------------|
|--------------------0---1---0-----5-6-0-------------------3---5---1--------|
|--------------------0---1---0-----5-6-0--------/8------\--3---5---1--------|
|-5b(6)----r-5---3---0---1---0-----5-6-0-------------------3---5---1--------|
                                                                         2x


RIFF Aa:

|-------------------------------------------------------------|
|-------------------------------------------------------------|
|-------------------------------------------------------------|
|---------0-------0----------------------0-------0------------|
|-3h5-5\--0-0-0-0-0-0-0-0-3-5-6--3h5-5\--0-0-0-0-0-0-0-0-3----|
|---------0-0-0-0-0-0-0-0----------------0-0-0-0-0-0-0-0------| 3x
            _____   _____                  _____   _____

|-------------------------------------------------------------
|-------------------------------------------------------------
|-------------------------------------------------------------
|---------0---------------------------------------------------
|-3h5-5\--0-0-0-0-0-0-0-0-3-5-6--3h5-5\--0-0-0-0-0-0-0-0-3----
|---------0-0-0-0-0-0-0-0----------------0-0-0-0-0-0-0-0------
            _____________                _______________

 -------------------------------------------------------------|
 -------------------------------------------------------------|
 -------------------------------------------------------------|
 -------------------------------------------------------------|
 -3h5-5\--0-0-0-0-0-0-0-0-3-5-6--3h5-5\--0-0-0-0-0-0-0-0-3----|
 ---------0-0-0-0-0-0-0-0----------------0-0-0-0-0-0-0-0------|
          _______________                _______________


FILL:

|-------------------------------------------------------|
|-------------------------------------------------------|
|-------------------------------------------------------|
|------------------------------3----------1-----1-----1-|
|------------------------------3--------0-1-3-0-1-3-0-1-|
|-3b(5)--3b(5)-3b(5)--4b(6)r-5-3--------0-1-3-0-1-3-0-1-|
                                        _   ___   ___


RIFF Ab:

|-------------------------------------------------------------|
|-------------------------------------------------------------|
|-------------------------------------------------------------|
|---------0-------0----------------------0--------------------|
|-3h5-5\--0-0-0-0-0-0-0-0-3-5-6--3h5-5\--0-0-0-0-0-0-0-0-3----|
|---------0-0-0-0-0-0-0-0----------------0-0-0-0-0-0-0-0------|
            _____   _____                  _____________

(Gtr 1)
|-------------------------------------------------------------|
|-------------------------------------------------------------|
|-------------------------------------------------------------|
|-----------------0-------------------------------------------|
|-3h5-5\--0-0-0-0-0-0-0-0-3-5-6--3h5-5\--0-0-0-0-0-0-0-0-3----|
|---------0-0-0-0-0-0-0-0----------------0-0-0-0-0-0-0-0------|
          _______   _____                _______________

(Gtr 2)
|-------------------------------------------------------------|
|-------------------------------------------------------------|
|-------------------------------------------------------------|
|-5h7-7\----------0-------5-7-8--5h7-7\------------------5----|
|---------0-0-0-0-0-0-0-0----------------0-0-0-0-0-0-0-0------|
|---------0-0-0-0-0-0-0-0----------------0-0-0-0-0-0-0-0------|
          _______   _____                _______________

(Gtr 1)
|-------------------------------------------------------------|
|-------------------------------------------------------------|
|-------------------------------------------------------------|
|---------0-------0------------------------------/6--6--6--5--|
|-3h5-5\--0-0-0-0-0-0-0-0-3-5-6--3h5-5\--0-0-0-0-/4--4--4--5--|
|---------0-0-0-0-0-0-0-0----------------0-0-0-0-----------5--|
            _____   _____                _______

(Gtr 2)
|-------------------------------------------------------------|
|-------------------------------------------------------------|
|------------------------------------------------13-13-13\-7--|
|-5h7-7\--0-------0-------5-7-8--5h7-7\-----------x--x--x--x--|
|---------0-0-0-0-0-0-0-0----------------0-0-0-0-11-11-11\-5--|
|---------0-0-0-0-0-0-0-0----------------0-0-0-0--------------| 2x
            _____   _____                _______


RIFF B:

|----------------------------------------------------------------------
|----------------------------------------------------------------------
|-8-----7-----8-----7-----7-8-12-11-8------7------8------7------7-8-5--
|-6-----5-----6-----5-----5-6-10--9-6------5------6------5------5-6-3--
|-6-0-0-5-0-0-6-0-0-5-0-0-5-6-10--9-6------5------6------5------5-6-3--
|-6-0-0-5-0-0-6-0-0-5-0-0-5-6-10--9-6-0000-5-0000-6-0000-5-0000-5-6-3--
    ___   ___   ___   ___             ____   ____   ____   ____

 --------------------------------------------------------------------------|
 --------------------------------------------------------------------------|
 -8------7------8------7------7-8-12-11-8------7------8------7------7-8-5--|
 -6------5------6------5------5-6-10--9-6------5------6------5------5-6-3--|
 -6------5------6------5------5-6-10--9-6------5------6------5------5-6-3--|
 -6-0000-5-0000-6-0000-5-0000-5-6-10--9-6-0000-5-0000-6-0000-5-0000-5-6-3--|
    ____   ____   ____   ____             ____   ____   ____   ____


RIFF C:

|------------------------------------------------------------------
|------------------------------------------------------------------
|------------------------------------------------------------------
|-0----1-0-1------0--0-1-0---------0---1-0-1------0--0-1-0-3/5-3-1-
|-0----1-0-1------0--0-1-0---------0---1-0-1------0--0-1-0-3/5-3-1-
|-0----1-0-1-3-\--0--0-1-0-3/5-3-1-0---1-0-1-3-\--0--0-1-0-3/5-3-1-
                                                         _________

 ------------------------------------------------------------------
 ------------------------------------------------------------------
 ------------------------------------------------------------------
 -0----1-0-1------0--0-1-0---------0---1-0-1-1----0--0-1-0-3/5-3-1-
 -0----1-0-1------0--0-1-0---------0---1-0-1-3-\--0--0-1-0-3/5-3-1-
 -0----1-0-1-3-\--0--0-1-0-3/5-3-1-0---1-0-1-3-\--0--0-1-0-3/5-3-1-
                                                         _________

 ---------------------|
 ---------------------|
 ---------------------|
 -5----3----1----3----|
 -5----3----1----3----|
 -5----3----1----3----|


RIFF D:

|-------------------------------------------------------
|-------------------------------------------------------
|-------------------------------------------------------
|-5------5------5------6-5-3-5------5------5------5-6-5-
|-5------5------5------6-5-3-5------5------5------5-6-5-
|-5-5555-5-5555-5-5555-6-5-3-5-5555-5-5555-5-5555-5-6-5-
    ____   ____   ____         ____   ____   ____

 -------------------------------------------------------
 -------------------------------------------------------
 -------------------------------------------------------
 -3------3------3------3-5-6-5------5--------3-3----6-6-
 -3------3------3------3-5-6-5------5--------3-3----6-6-
 -3-3333-3-3333-3-3333-3-5-6-5-5555-5-555555-3-3-66-6-6-
    ____   ____   ____         ____   ______     __

 -------------------------------------------------------
 -------------------------------------------------------
 -------------------------------------------------------
 -5------5------5------6-5-3-5------5------5------5-6-5-
 -5------5------5------6-5-3-5------5------5------5-6-5-
 -5-5555-5-5555-5-5555-6-5-3-5-5555-5-5555-5-5555-5-6-5-
    ____   ____   ____         ____   ____   ____

 -------------------------------------------------------|
 -------------------------------------------------------|
 -------------------------------------------------------|
 -3------3------3------3-5-6-5------5------5------5-3-5-|
 -3------3------3------3-5-6-5------5------5------5-3-5-|
 -3-3333-3-3333-3-3333-3-5-6-5-5555-5-5555-5-5555-5-3-5-|
    ____   ____   ____         ____   ____   ____

(Gtr 1)
|-------------------------------------------------------|
|-------------------------------------------------------|
|-------------------------------------------------------|
|-------------------------------------------------6-5-6-|
|-------------------------------------------------6-5-6-|
|-6"----------------------------------------------6-5-6-|
  _______________________________________________

(Gtr 2 solo - 4:10)
|-------------------------------------------------12-13-15-17-15-13-|
|----------------------------------------12-13-15-------------------|
|-------------------------------11-12-14----------------------------|
|-5-7-8-7-8-10-8-10-11-10-11-13-------------------------------------|
|-------------------------------------------------------------------|
|-------------------------------------------------------------------|
  . . . . .  . .  .  .  .  .  .  .  .  .

|-12----------18-17-15-13-15-13-12-10----------------------------|
|----15-13-12-------------------------15-13-12-10----------------|
|-------------------------------------------------12-13-15-17-15-|
|----------------------------------------------------------------|
|----------------------------------------------------------------|
|----------------------------------------------------------------|

|---------------|
|---------------|
|-13---12---10--|
|---------------|
|---------------|
|---------------|

(Gtr 1)
|-------------------------------------------------------
|-------------------------------------------------------
|-------------------------------------------------------
|-5------5------5------6-5-3-5------5------5------5-6-5-
|-5------5------5------6-5-3-5------5------5------5-6-5-
|-5-5555-5-5555-5-5555-6-5-3-5-5555-5-5555-5-5555-5-6-5-
    ____   ____   ____         ____   ____   ____

 -------------------------------------------------------
 -------------------------------------------------------
 -------------------------------------------------------
 -3------3------3------3-5-6-5------5--------3-3----6-6-
 -3------3------3------3-5-6-5------5--------3-3----6-6-
 -3-3333-3-3333-3-3333-3-5-6-5-5555-5-555555-3-3-66-6-6-
    ____   ____   ____         ____   ______     __

 -------------------------------------------------------
 -------------------------------------------------------
 -------------------------------------------------------
 -5------5------5------6-5-3-5------5------5------5-6-5-
 -5------5------5------6-5-3-5------5------5------5-6-5-
 -5-5555-5-5555-5-5555-6-5-3-5-5555-5-5555-5-5555-5-6-5-
    ____   ____   ____         ____   ____   ____

 -------------------------------------------------------|
 -------------------------------------------------------|
 -------------------------------------------------------|
 -3------3------3------3-5-6-5------5------5------5-3-5-|
 -3------3------3------3-5-6-5------5------5------5-3-5-|
 -3-3333-3-3333-3-3333-3-5-6-5-5555-5-5555-5-5555-5-3-5-|
    ____   ____   ____         ____   ____   ____

(Gtr 2)
|-17------15-17-18-17----------17-18-17-15------20--18--17------------|
|---------------------------------------------------------------------|
|---------------------------------------------------------------------|
|----------------------17---------------------------------------------|
|---------------------------------------------------------------------|
|---------------------------------------------------------------------| 2x

(Gtr 1)
|-------------------------------------------------------|
|-------------------------------------------------------|
|-------------------------------------------------------|
|-------------------------------------------------------|
|-------------------------------------------------------|
|-6"----------------------------------------------------|
  _____________________________________________________

(Gtr 2 solo - 4:40)
|-------------------------------------------------12-13-15-17-15-13-|
|----------------------------------------12-13-15-------------------|
|-------------------------------11-12-14----------------------------|
|-5-7-8-7-8-10-8-10-11-10-11-13-------------------------------------|
|-------------------------------------------------------------------|
|-------------------------------------------------------------------|
  . . . . .  . .  .  .  .  .  .  .  .  .

|-/18-20-18-20-18-22-18-20-18-20-18-22-18-20-18-20-18-22-18|
|----------------------------------------------------------|
|----------------------------------------------------------|
|----------------------------------------------------------|
|----------------------------------------------------------|
|----------------------------------------------------------|


|--20-18-20-18-22-18-20-18-17-18-17-15-17-15-13-15-13-12---------|
|--------------------------------------------------------/15~~~~-|
|----------------------------------------------------------------|
|----------------------------------------------------------------|
|----------------------------------------------------------------|
|----------------------------------------------------------------|


RIFF E:

|---------------------------------------------------------------------|
|---------------------------------------------------------------------|
|---------------------------------------------------------------------|
|-0--1--3--5------5/6-5--3--5------5/6-5--3-3h5--3--1--1h3-0----------|
|-0--1--3--5------5/6-5--3--5------5/6-5--3-3h5--3--1--1h3-0----------|
|-0--1--3--5------5/6-5--3--5------5/6-5--3-3h5--3--1--1h3-0----------|

(Gtr 1)
|-------------------------------------------------------------------------|
|-------------------------------------------------------------------------|
|-------------------------------------------------------------------------|
|-0--1--3--3/5------5/6-5--3--3h5------5/6-5--3-3h5--3--1--1h3-0----------|
|-0--1--3--3/5------5/6-5--3--3h5------5/6-5--3-3h5--3--1--1h3-0----------|
|-0--1--3--3/5------5/6-5--3--3h5------5/6-5--3-3h5--3--1--1h3-0----------|

(Gtr 2)
|-------------------------------------------------------------------------|
|-------------------8/9-8--6--6/8------8/9-8--6-6/8--6--4--4/6-3----------|
|-------------------x---x--x--x--------x---x--x-x----x--x--x--------------|
|-0--1--3--3/5------5/6-5--3--3/5------5/6-5--3-3/5--3--1--1/3------------|
|-0--1--3--3/5------------------------------------------------------------|
|-0--1--3--3/5------------------------------------------------------------|


RIFF F:

|---------------------------------------------------
|---------------------------------------------------
|---------------------------------------------------
|---------------------------------------------------
|------------------------------------------9--8h9-6-
|-0"--/6"-5"-3"-0"--3"5"-0"--3"5"-0"--3"5"----------
  ________________________________________

 ------------------------------------------------------------------------|
 ------------------------------------------------------------------------|
 --------------------------------------------------------------------6\5-|
 ------------------------------------------------------8-7--8-7--4/7-----|
 ------------------------------------------9--8h9-6-9--------------------|
 -0"--/6"-5"-3"-0"--3"5"-0"--3"5"-0"--3"5"-------------------------------|
  ________________________________________

(Gtr 1)
|------------------------------------------------
|------------------------------------------------
|------------------------------------------------
|------------------------------------------------
|-5"--/9"-8"-6"-5"--5h6-5"--5h6-5"--5h6-9--8h9-6-
|------------------------------------------------

(Gtr 2)
|---------------------------------------------------
|---------------------------------------------------
|---------------------------------------------------
|---------------------------------------11--10h11-8-
|-5"--/9"-8"-6"-5"--5h6-5"--5h6-5"--5h6-------------
|---------------------------------------------------

(Gtr 1)
 ---------------------------------------------------------------------
 ---------------------------------------------------------------------
 -----------------------------------------------------------------6\5-
 ---------------------------------------------------8-7--8-7--4/7-----
 -5"--/9"-8"-6"-5"--5h6-5"--5h6-5"--5h6-9--8h9-6-9--------------------
 ---------------------------------------------------------------------

(Gtr 2)
 ------------------------------------------------------------------------------
 --------------------------------------------------------------------------9\8-
 ------------------------------------------------------------10-9-10-9-6/9-----
 -7"--/11"-10"-8"-7"--7h10-7"--7h10-7"--7h10-11--10h11-8--11-------------------
 ------------------------------------------------------------------------------
 ------------------------------------------------------------------------------

(Gtr 1)
 ----------------------------------
 ----------------------------------
 ----------------------------------
 -5----------------5---------------
 -x----------------5---------------
 -5----------------5---------------

(Gtr 2)
 ----------------------------------
 ----------------------------------
 ----------------------------------
 -/8--------------/11--------------
 ----------------------------------
 ----------------------------------

(Gtr 1)
 -------------------------------------------|
 -------------------------------------------|
 -------------------------------------------|
 -----------------------------------------4-|
 -----------------------------------------4-|
 -0"--4"-3"-2"-0"--1"3"-0"--1"3"-0"--1"3"-4-|
  _______________________________________

(Gtr 2 solo - 5:34)
|-20-18-17-15-20-18-17-15-20-18-17-15-17-15-13-12-|
|-------------------------------------------------|
|-------------------------------------------------|
|-------------------------------------------------|
|-------------------------------------------------|
|-------------------------------------------------|

|-------------------------------------------------------------------|
|-18-17-15-13-15-13-12----------------------------------------------|
|----------------------17-15-14-12-14-12-11-9-----------------------|
|---------------------------------------------15-13-12-10-12-10-8-7-|
|-------------------------------------------------------------------|
|-------------------------------------------------------------------|

|----------------|
|----------------|
|----------------|
|----------ph----|
|-/9---8---6~~~~-|
|----------------|

(Gtr 1 & 2)
|----------------------------------------------------------------------------|
|----------------------------------------------------------------------------|
|-----------------------------------------------------------------------6\5--|
|------------------------------------------------------8--7--8--7--4/7-------|
|-----------------------------------------9--8h9-6--9------------------------|
|-0"--4"-3"-2"-0"--1"3"-0"--1"3"-0"--1"3"------------------------------------|
  _______________________________________


RIFF H:

|-------------------------------------------------|
|-------------------------------------------------|
|-------------------------5/6\5-2/6\5-------------|
|-0-----------------------------------7/8\7-4/7\6-|
|-0-----------------------------------------------|
|-0------3-4-4/7-6~----\--------------------------|

(Gtr 1)
|-------------------------------------------------|
|-------------------------------------------------|
|-------------------------5/6\5-2/6\5-------------|
|-0-----------------------------------7/8\7-4/7\6-|
|-0-----------------------------------------------|
|-0------3-4-4/7-6~----\--------------------------|

(Gtr 2)
|--------------------------------------------------|
|-------------------------8/9\8-5/9\8--------------|
|-------------------------------------9/10\9-6/9\8-|
|-0------------------------------------------------|
|-0------------------------------------------------|
|-0------3-4-4/7-6~----\---------------------------| 2x


INTERLUDE:
(Gtr 1)
|----------------------------------------------------------------------|
|----------------------------------------------------------------------|
|----------------------------------------------------------------------|
|-0--------------------------------------------------------------------|
|-0-------------------------------------------------------------3------|
|-0--------------------------------------------------------------------|

(Sitar)
|----------------------------------------------------------------------|
|--------------------------------7-------------------------------------|
|-7h8p7----5/7----8-7h8p7----7-8---8-7h8p7----5/7----8-7h8p7-----------|
|----------------------------------------------------------------------|
|----------------------------------------------------------------------|
|----------------------------------------------------------------------| 4x

(Gtr 1)
|----------------------------------------------------------------------|
|----------------------------------------------------------------------|
|----------------------------------------------------------------------|
|-0--------------------------------------------------------------------|
|-0-------------------------------------------------------------4------|
|-0---------------------------------------------------------------6-5--|

(Sitar)
|----------------------------------------------------------------------|
|--------------------------------7-------------------------------------|
|-7h8p7----5/7----8-7h8p7----7-8---8-7h8p7----5/7----8-7h8p7-----------|
|----------------------------------------------------------------------|
|----------------------------------------------------------------------|
|----------------------------------------------------------------------|


RIFF I:

|-----------------------------------
|-----------------------------------
|-----------------------------------
|-----------------------------------
|-5"----4"----------5"--------------
|-----------5/6"-5"-----6"--5"--3"--

 -------------------------------------------------
 -------------------------------------------------
 -------------------------------------------------
 -------------------------------6-----5-----6-----
 -5"----4"----------5"----------6-0-0-5-0-0-6-0-0-
 -----------5/6"-5"-----6"--5"--6-0-0-5-0-0-6-0-0-
                                  ___   ___   ___

 ------------------------------------------------------------------|
 ------------------------------------------------------------------|
 ------------------------------------------------------------------|
 ------------------------------------------------------------------|
 -5"----4"----------5"---------------5"----4"----------5"----------|
 -----------5/6"-5"-----6"--5"--3"-------------5/6"-5"-----6"--5"--|


RIFF B


FILL:
(Gtr 1)
|--------------------------------|
|--------------------------------|
|--------------------------------|
|--7----8----7----8----7----5----|
|--5----6----5----6----5----3----|
|--------------------------------|

(Gtr 2)
|--------------------------------|
|-10---11---10---11---10----8----|
|--x----x----x----x----x----x----|
|--7----8----7----8----7----5----|
|--------------------------------|
|--------------------------------|


OUTRO:

|-----------------------------------------------------------------------|
|-9------8---6----------------------------------------------------------|
|-8------7---5-----------------------------/10------\-------------------|
|-6------5---3---0---1---0-----5-6-0---------x---------3---5---1--------|
|-6------5---3---0---1---0-----5-6-0--------/8------\--3---5---1--------|
|-6------5---3---0---1---0-----5-6-0-------------------3---5---1--------| 2x
                               ___

|-----------------------------------------------------------------------|
|-9------8---6----------------------------------------------------------|
|-8------7---5----------------------------------------------------------|
|-6------5---3---0---1---0----------------------------------------------|
|-6------5---3---0---1---0----------------------------------------------|
|-6------5---3---0---1---0----------------------------------------------|

  Visit MetalTabs.com for more metal tablature

bottom separator

Contact Us | Privacy Policy | Disclaimer | Legal Notice
Copyright © 2001-2014 MetalTabs.com. All Rights Reserved.