top separator

Home

Forum

What's New

Submit a Tab

FAQ

Links

Contact Us

Link to Us

MetalTabs.com logo

Bands

0-9

A

B

C

D

E

F

G

H

I

J

K

L

M

N

O

P

Q

R

S

T

U

V

W

X

Y

Z

Search

What

Where
 

Malevolent Creation - "In Cold Blood" Guitar Tab

Plain Text Version
More Malevolent Creation Tabs

Hits: 5764
Rated: 5.00 out of 5 (2 votes)
Updated: 2004-03-24 14:13:28

 

By:

Father Death

sendpm.gif

email.gif

Important note
This tab is available online because we obtained explicit permission from Malevolent Creation or their label.


#----------------------------------PLEASE NOTE---------------------------------#
#This file is the author's own work and represents their interpretation of the #
#song. You may only use this file for private study, scholarship, or research. #
#Unless specified otherwise, this is NOT an official tab from the band members.#
#------------------------------------------------------------------------------#

  Visit MetalTabs.com for more metal tablature
  
Band:        MALEVOLENT CREATION
Album:        In Cold Blood
Song:        In Cold Blood

Transcribed by:        Chris Humeniuk
Email:        father_death_666@hotmail.com

Tuning: 2.5 steps down (B)

Keys:
 ___ - palm mute
  "  - tremelo pick
 < > - pinch harmonic
 / \ - slide


INTRO:
(Gtr 1)
|-----------------------------------------------------------------|
|-----------------------------------------------------------------|
|-----------------------------------------------------------------|
|-----------------------------------------------------------------|
|-----------------------------------------------------------------|
|-0-3-2~--0-2-1-1-0-3-2~--0-2-1-1-0-3-2~--0-2-1-1-0-3-2~--0-2-1-1-|

(Gtr 2)
|-----------------------------------------------------------------|
|-----------------------------------------------------------------|
|-----------------------------------------------------------------|
|-----------------------------------------------------------------|
|-2-----------------------------2-2-------------------------------|
|-0-----------------------------0-0-------------------------------|
                                _


RIFF A:

|-----------------------------------------------------------------|
|-----------------------------------------------------------------|
|-----------------------------------------------------------------|
|-----------------------------------------------------------------|
|-----------------------------------------------------------------|
|-0-3-2~--0-2-1-1-0-3-2~--0-2-1-1-0-3-2~--0-2-1-1-0-3-2~--0-2-1-1-| 2x

|-----------------------------------------------------------------|
|-----------------------------------------------------------------|
|-----------------------------------------------------------------|
|-2-5-4---2-4-3-3-2-5-4---2-4-3-3-2-5-4---2-4-3-3-2-5-4---2-4-3-3-|
|-2-5-4---2-4-3-3-2-5-4---2-4-3-3-2-5-4---2-4-3-3-2-5-4---2-4-3-3-|
|-0-3-2---0-2-1-1-0-3-2---0-2-1-1-0-3-2---0-2-1-1-0-3-2---0-2-1-1-| 2x

|-----------------------------------------------------------------|
|-----------------------------------------------------------------|
|-----------------------------------------------------------------|
|-----------------------------------------------------------------|
|-------------------------------------------------------------3-3-|
|-0-3-2~--0-2-1-1-0-3-2~--0-2-1-1-0-3-2~--0-2-1-1-0-3-2~--0-2-1-1-|
                                                              ___

|-----------------------------------------------------------------|
|-----------------------------------------------------------------|
|-----------------------------------------------------------------|
|-----------------------------------------------------------------|
|-----------------------------------------------------------------|
|-0-3-2~--0-2-1-1-0-3-2~--0-2-1-1-0-3-2~--0-2-1-1-0-3-2~--0-2-1-1-|


RIFF B:

|-----------------------------------------------------------------
|-----------------------------------------------------------------
|-----------------------------------------------------------------
|-2-------------------------5-5-5-2---------------5---------------
|-2-------------------------5-5-5-2---------------5---------------
|-0-0-0-0-0-0-0-0-0-0-0-0-0-3-3-3-0-0-0-0-0-0-0-0-3-0-0-0-0-1"----
    _______________________         _____________   _______

 -----------------------------------------------------------------
 -----------------------------------------------------------------
 -----------------------------------------------------------------
 -2-------------------------5-5-5-2-----------------6-5-4---------
 -2-------------------------5-5-5-2-----------------6-5-4---------
 -0-0-0-0-0-0-0-0-0-0-0-0-0-3-3-3-0-0-0-0-0-0-0-0-0-4-3-2---------
    _______________________         _______________

 -----------------------------------------------------------------
 -----------------------------------------------------------------
 -----------------------------------------------------------------
 -2-------------------------5-5-5-2---------------5---------------
 -2-------------------------5-5-5-2---------------5---------------
 -0-0-0-0-0-0-0-0-0-0-0-0-0-3-3-3-0-0-0-0-0-0-0-0-3-0-0-0-0-1"----
    _______________________         _____________   _______

 ----------------------------------------------------------------------------|
 ----------------------------------------------------------------------------|
 ----------------------------------------------------------------------------|
 -2-------------------------5-5-5-2-----------------6-5-4--------5-4-3----4--|
 -2-------------------------5-5-5-2-----------------6-5-4--------5-4-3----4--|
 -0-0-0-0-0-0-0-0-0-0-0-0-0-3-3-3-0-0-0-0-0-0-0-0-0-4-3-2------0-3-2-1----2--|
    _______________________         _______________            _


RIFF C:

|---------------------------------------------------|
|---------------------------------------------------|
|---------------------------------------------------|
|-2--6-5-4----2-5-4-3---4--2--6-5-4----2-5-4-3---4--|
|-2--6-5-4----2-5-4-3---4--2--6-5-4----2-5-4-3---4--|
|-0--4-3-2----0-3-2-1---2--0--4-3-2----0-3-2-1---2--| 2x

|----------------------------------------------------------|
|----------------------------------------------------------|
|----------------------------------------------------------|
|----------------------------------------------------------|
|----------------------------------------------------------|
|-0--4-3-2~---0-3-2-1~--<2>~--0--4-3-2~---0-3-2-1~---<2>~--|

(Gtr 1)
|----------------------------------------------------------|
|----------------------------------------------------------|
|----------------------------------------------------------|
|----------------------------------------------------------|
|----------------------------------------------------------|
|-0--4-3-2~---0-3-2-1~--<2>~--0--4-3-2~---0-3-2-1~---<2>~--|

(Gtr 2)
|----------------------------------------------------------|
|----------------------------------------------------------|
|----------------------------------------------------------|
|----------------------------------------------------------|
|----------------------------------------------------------|
|-0--7-6-5~---0-6-5-4~--<5>~--0--7-6-5~---0-6-5-4~---<5>~--|


RIFF A


RIFF B


RIFF C


RIFF D:

|-----------------------------------------------------------------|
|-----------------------------------------------------------------|
|-----------------------------------------------------------------|
|-----------------------------------------------------------------|
|-3-3-3-6-6-6-6-6-3-3-3-3-3-5-5-5-3-3-3-6-6-6-6-6-4-4-4-4-7-7-7-7-|
|-1-1-1-4-4-4-4-4-1-1-1-1-1-3-3-3-1-1-1-4-4-4-4-4-2-2-2-2-5-5-5-5-| 2x
  _______________________________________________________________

|-----------------------------------------------------------------|
|-----------------------------------------------------------------|
|-----------------------------------------------------------------|
|-----------------------------------------------------------------|
|-----------------------------------------------------------------|
|-1"------4"------1"------3"------1"------4"------2"------5"------| 2x


UNDER SOLO:

|----------------------------------------------------------------
|----------------------------------------------------------------
|----------------------------------------------------------------
|-2------5---5-5-4-2------4---6---2-----5---5-5-4-2------4-------
|-2------5---5-5-4-2------4---6---2-----5---5-5-4-2------4-------
|-0------3---3-3-2-0------2---4---0-----3---3-3-2-0------2-------

 --------------------------------------------------------------------|
 --------------------------------------------------------------------|
 --------------------------------------------------------------------|
 -2------5---5-5-4-2------4---6---2-----5---5-5-4-2------4-----------|
 -2------5---5-5-4-2------4---6---2-----5---5-5-4-2------4-4-4-4-4-4-|
 -0------3---3-3-2-0------2---4---0-----3---3-3-2-0------2-2-2-2-2-2-|
                                              ___          _________


POST SOLO:

|--------------------------------------------------------------------|
|--------------------------------------------------------------------|
|--------------------------------------------------------------------|
|-2------5---5-5-4-2------4---6---2-----5---5-5-4-2------4-----------|
|-2------5---5-5-4-2------4---6---2-----5---5-5-4-2------4-4-4-4-4-4-|
|-0------3---3-3-2-0------2---4---0-----3---3-3-2-0------2-2-2-2-2-2-|
                                              ___          _________

(Gtr 1)
|-----------------------------------------------------------------|
|-----------------------------------------------------------------|
|-----------------------------------------------------------------|
|-----------------------------------------------------------------|
|-----------------------------------------------------------------|
|-0-3-2~--0-2-1-1-0-3-2~--0-2-1-1-0-3-2~--0-2-1-1-0-3-2~--0-2-1-1-|

(Gtr 2)
|-----------------------------------------------------------------|
|-----------------------------------------------------------------|
|-----------------------------------------------------------------|
|-----------------------------------------------------------------|
|-2-----------------------------2-2-------------------------------|
|-0-----------------------------0-0--------------0-0-0-0-0-0-0-15\|
                                _                _____________


RIFF A


OUTRO:
(Gtr 1)
|-----------------------------------------------------------------|
|-----------------------------------------------------------------|
|-----------------------------------------------------------------|
|-2-5-4---2-4-3-3-2-5-4---2-4-3-3-2-5-4---2-4-3-3-2-5-4---2-4-3-3-|
|-2-5-4---2-4-3-3-2-5-4---2-4-3-3-2-5-4---2-4-3-3-2-5-4---2-4-3-3-|
|-0-3-2---0-2-1-1-0-3-2---0-2-1-1-0-3-2---0-2-1-1-0-3-2---0-2-1-1-|

(Gtr 2)
|-----------------------------------------------------------------|
|-----------------------------------------------------------------|
|-----------------------------------------------------------------|
|---5---------------5---------------5---------------5-------------|
|---5---------------5---------------5---------------5-------3-3-3-|
|-0-3-------------0-3-------------0-3-------------0-3-------1-1-1-|
  _               _               _               _         _____

  Visit MetalTabs.com for more metal tablature

bottom separator

Contact Us | Privacy Policy | Disclaimer | Legal Notice
Copyright © 2001-2014 MetalTabs.com. All Rights Reserved.