top separator

Home

Forum

What's New

Submit a Tab

FAQ

Links

Contact Us

Link to Us

MetalTabs.com logo

Bands

0-9

A

B

C

D

E

F

G

H

I

J

K

L

M

N

O

P

Q

R

S

T

U

V

W

X

Y

Z

Search

What

Where
 

Deranged - "Ripped, raped, randomized" Guitar Tab

Plain Text Version
More Deranged Tabs

Hits: 2542
Rated: 5.00 out of 5 (1 vote)
Updated: 2004-03-24 14:13:20

 

By:

sendpm.gif

email.gif

Important note
This tab is available online because we obtained explicit permission from Deranged or their label.


#----------------------------------PLEASE NOTE---------------------------------#
#This file is the author's own work and represents their interpretation of the #
#song. You may only use this file for private study, scholarship, or research. #
#Unless specified otherwise, this is NOT an official tab from the band members.#
#------------------------------------------------------------------------------#

  Visit MetalTabs.com for more metal tablature
  
.  - palm mute           /  - slide up to
\  - slide down to       ~  - vibrato
h  - hammer on           b  - Bend
p  - pull off            Suffixes for bend
t  - tap                 f  - full bend    h - half bend
ph - pinched harmonic    q  - quarter bend t - tap bend
*  - see comment         ^  - Hold bend    r release bend
x  - Stuccatto           ~  - vibrato bend
,  - slight palm mute    () - ghost note, sustained note
"  - tremolo note        <> - Trill

Tunning B E A D G B



                Riff 1 X6
|------|--------------------------------|
|------|--------------------------------|
|------|--------------------------------|
|------|--------7\6------8\7----9\8\7---|
|------|--------5\4------6\5----7\6\5-8-|
|--X\--|-000000-----0000-----00-------6-|
         ......     ....     ..



        Riff 2a X12
|-------------------|   I'm not sure but from the Riff 2a
|-------------------|        or 2b to next Riff, they don't
|-------------------|        play the last notes (4" and 1")
|-------------------|   of these riffs
|-------------------|
|-3"---5"-4"-3"--4"-|



        Riff 2b X2
|--------------------|
|--------------------|
|-0"---2"-1"-0"--1"--|
|--------------------|
|--------------------|
|--------------------|



         Riff 2a X4

        Riff 2b X4

        Riff 2a X4

        Riff 2b X4

        Riff 1  X8

        Riff 2a X8

        Riff 2b X2

        Riff 2a X2
            |
                |
                |
                |
                |
        Riff 2b X12


        Fill 1
|--------------------------------------------------
|--------------------------------------------------
|--------------------------------------------------
|--------------------------------------------------
|--------------------------------------------------
|-3"----5"--3"--4"--3"--5"--3"--4"--3"--5"--3"--4"-


----------------------------------------------|
----------------------------------------------|
----------------------------------------------|
----------------------------------------------|
----------------------------------------------|
-3"-7"-3"-5"-3"-4"-3"--5"--3"--4"--3"--5"--3"-|





        Riff 3a X4
|-----------------------------------|
|-----------------------------------|
|-----------------------------------|
|-----------------------------------|
|-6--5-------------8--7-------------|
|-------3-33333333-------3-33333333-|





        Fill 2
|------------------|
|------------------|
|------------------|
|------------------|
|-6--5-----6--5----|
|-------3--------3-|
        .        .



        Riff 2a X2

        Riff 2b X2

        Riff 2a X2

        Riff 2b X2

        Riff 2a X2

        Riff 2b X2

        Riff 2a X2

        Riff 2b X2

        Riff 2a X2




        Fill 3
|----------------------|
|----------------------|
|----------------------|
|--2-------------------|
|--2-------------------|
|--0--------33333333---|



        Riff 3a X4

        Fill 2

        Riff 2a X2

        Riff 3 X2

        Riff 2b X8




        Riff 3b X6
|-----------------------------------|
|-----------------------------------|
|-----------------------------------|
|-----------------------------------|
|-6--5-------------8--7-------------|
|-------3-33333333-------3-33333333-|
          ........         ........



        Fill 4
|--------------------------|
|--------------------------|
|--------------------------|
|--------------------------|
|-6--5------3--2-----------|
|--------------------------|



        Riff 2a X4

        Riff 2b X4

        Riff 2a X4

        Riff 2b X4

        Riff 2a X2

        Riff 2b X2

        Riff 2a X2

        Riff 2b X2

        Riff 2a X2

        Riff 2b X2



     End
|----------|
|----------|
|----------|
|-5--------|
|-5--------|
|-3--------|

  Visit MetalTabs.com for more metal tablature

bottom separator

Contact Us | Privacy Policy | Disclaimer | Legal Notice
Copyright © 2001-2014 MetalTabs.com. All Rights Reserved.