top separator

Home

Forum

What's New

Submit a Tab

FAQ

Links

Contact Us

Link to Us

MuSpy.com

MetalTabs.com logo

Bands

0-9

A

B

C

D

E

F

G

H

I

J

K

L

M

N

O

P

Q

R

S

T

U

V

W

X

Y

Z

Search

What

Where
 

Sodom - "Fuck The Police" Guitar Tab

Plain Text Version
More Sodom Tabs

Hits: 6774
Rated: 3.25 out of 5 (12 votes)
Updated: 2006-06-09 22:17:07

 

By:

rapeandruin

sendpm.gif

email.gif

Important note
This tab is available online because we obtained explicit permission from Sodom or their label.


#----------------------------------PLEASE NOTE---------------------------------#
#This file is the author's own work and represents their interpretation of the #
#song. You may only use this file for private study, scholarship, or research. #
#Unless specified otherwise, this is NOT an official tab from the band members.#
#------------------------------------------------------------------------------#

  Visit MetalTabs.com for more metal tablature
  
#
                                 FUCK THE POLICE
                              As recorded by Sodom
                  (From the 1997 Album 'TIL DEATH DO US UNITE)

Words and Music by Sodom
Transcribed by rapeandruin

Gtr I (E A D G B E) - 'Rhythm'
Gtr II (E A D G B E) - 'Lead'

 Intro
  Q=165
 4/4
  Gtr I
  TPTP TPTP   TPTP TPTP   TPTP TPTP   TPTPTPTPTPTPTP
|-----------|-----------|-----------|----------------|
|-----------|-----------|-----------|----------------|
|-----------|-----------|-----------|----------------|
|-4S9--4S9--|-4S9--4S9--|-4S9--4S9--|-7S8S6S7S5S6S4\-|
|-2S7--2S7--|-2S7--2S7--|-2S7--2S7--|-5S6S4S5S3S4S2\-|
|-----------|-----------|-----------|----------------|


   Verse
    PM----|     PM----|       PM----|     PM----|
||--------------------------|-------------------------|
||o-------------------------|-------------------------|
||--------------------------|-------------------------|
||----------6-5-------------|---------6-5-------------|
||o---------4-3---------5-4-|---------4-3---------5-4-|
||--0-0-0-0-----0-0-0-0-3-2-|-0-0-0-0-----0-0-0-0-3-2-|


  PM----|     PM----|       TP     TP TP
                                           6x
|-------------------------|----------------||
|-------------------------|---------------o||
|-------------------------|----------------||
|---------6-5-------------|----------------||
|---------4-3---------5-4-|-3---------1---o||
|-0-0-0-0-----0-0-0-0-3-2-|--------2-------||


  PM----|     PM----|       PM----|     PM----|
|-------------------------|-------------------------|
|-------------------------|-------------------------|
|-------------------------|-------------------------|
|---------6-5-------------|---------6-5-------------|
|---------4-3---------5-4-|---------4-3---------5-4-|
|-0-0-0-0-----0-0-0-0-3-2-|-0-0-0-0-----0-0-0-0-3-2-|


  PM----|     PM----|       TP     TP TP
|-------------------------|---------------|
|-------------------------|---------------|
|-------------------------|---------------|
|---------6-5-------------|---------------|
|---------4-3---------5-4-|-3-------------|
|-0-0-0-0-----0-0-0-0-3-2-|--------2--1---|


   Chorus
                                               TPTPTPTP
                                            4x
||-------------------|----------------------||----------|
||o------------------|---------------------o||----------|
||-------------------|----------------------||----------|
||--6\-4--------6\-4-|-(4)------------------||-4S9-4S9--|
||o-4\-2--5\-4--4\-2-|-(2)-5\-4--5\-4-5\-4-o||-2S7-2S7--|
||--------3\-2-------|-----3\-2--3\-2-3\-2--||----------|


   Verse
    Gtr I
    PM----|     PM----|       PM----|     PM----|
||--------------------------|-------------------------|
||o-------------------------|-------------------------|
||--------------------------|-------------------------|
||----------6-5-------------|---------6-5-------------|
||o---------4-3---------5-4-|---------4-3---------5-4-|
||--0-0-0-0-----0-0-0-0-3-2-|-0-0-0-0-----0-0-0-0-3-2-|


                            1.,3.            2.,4.
  PM----|     PM----|       TP     TP TP     TP     TP TP
                                          4x                 4x
|-------------------------|---------------||-----------------||
|-------------------------|--------------o||----------------o||
|-------------------------|---------------||-----------------||
|---------6-5-------------|---------------||-----------------||
|---------4-3---------5-4-|-3---------1--o||-3--------------o||
|-0-0-0-0-----0-0-0-0-3-2-|--------2------||--------2--1-----||


   Chorus
                                      4x
||----------------|-------------------||
||o---------------|------------------o||
||----------------|-------------------||
||--6S4-------6S4-|-(4)---------------||
||o-4S2--5S4--4S2-|-(2)-5S4--5S4-5S4-o||
||-------3S2------|-----3S2--3S2-3S2--||


                       5/8
                                      10x
||-------------------||----------------||
||o------------------||---------------o||
||-------------------||----------------||
||--6\-4--------6\-4-||-(4)------------||
||o-4\-2--5\-4--4\-2-||-(2)-5\-4-5\-4-o||
||--------3\-2-------||-----3\-2-3\-2--||


 4/4
  TPTP  TPTP    TPTP  TPTP    TPTP   TP  TP   TP  TP  TP  TP
|-------------|-------------|--------------|------------------|
|-------------|-------------|--------------|------------------|
|-------------|-------------|--------------|------------------|
|-4S9---4S9---|-4S9---4S9---|-4S9---\8--\7-|-\6--\5--\4--\3\--|
|-2S7---2S7---|-2S7---2S7---|-2S7---\6--\5-|-\4--\3--\2--\1\--|
|-------------|-------------|--------------|------------------|


 Solo - 2:08
  Gtr I
   TP    TP                TP    TP
|-------------------------------------------------|
|-------------------------------------------------|
|-------------------------------------------------|
|--4S====9-----------------4S====9----------------|
|--2S====7-----------------2S====7----------------|
|-------------------------------------------------|
|
| Gtr II
|-------------------------------------------------|
|-------------------------------------------------|
|-12b14r12b14r15p12-14p12-12b14r12b14r15p12-14p12-|
|-------------------------------------------------|
|-------------------------------------------------|
|-------------------------------------------------|

  TP    TP                TP
|-------------------------------------------------|
|-------------------------------------------------|
|-------------------------------------------------|
|--4S====9----------------12----------------------|
|--2S====7----------------10----------------------|
|-------------------------------------------------|
|
|-------------------------------------------------|
|-------------------------------------------------|
|-12b14r12b14r15p12-14p12-12b14r12b14r15p12-14p12-|
|-------------------------------------------------|
|-------------------------------------------------|
|-------------------------------------------------|

   TP    TP                TP    TP                  TP TP
|-------------------------------------------------|------------------------|
|-------------------------------------------------|------------------------|
|-------------------------------------------------|------------------------|
|--4S====9-----------------4S====9----------------|--4S=9----------------7-|
|--2S====7-----------------2S====7----------------|--2S=7------------9---5-|
|-------------------------------------------------|------------------7-----|
|
|                                                                    ~~~~
|-------------------------------------------------|------------------------|
|-------------------------------------------------|------------------------|
|-12b14r14p12-12b14r14p12-12b14r14p12-12b14r14p12-|-18-18-18h19p18-[21]----|
|-------------------------------------------------|------------------------|
|-------------------------------------------------|------------------------|
|-------------------------------------------------|------------------------|


  TPTP  TPTP    TPTP   TP     TPTP  TPTP    TPTP
|-------------|-------------|-------------|-------------|
|-------------|-------------|-------------|-------------|
|-------------|-------------|-------------|-------------|
|-4S9---4S9---|-4S9---12----|-4S9---4S9---|-4S9------7--|
|-2S7---2S7---|-2S7---10----|-2S7---2S7---|-2S7---9--5--|
|-------------|-------------|-------------|-------7-----|
|
|-------------|-------------|-------------|-------------|
|-------------|-------------|-------------|-------------|
|-------------|-------------|-------------|-------------|
|-------------|-------------|-------------|-------------|
|-------------|-------------|-------------|-------------|
|-------------|-------------|-------------|-------------|


  TPTP  TPTP    TPTP   TP     TPTP  TPTP    TPTP
|-------------|-------------|-------------|-------------|
|-------------|-------------|-------------|-------------|
|-------------|-------------|-------------|-------------|
|-4S9---4S9---|-4S9---12----|-4S9---4S9---|-4S9------7--|
|-2S7---2S7---|-2S7---10----|-2S7---2S7---|-2S7---9--5--|
|-------------|-------------|-------------|-------7-----|
|
|-------------|-------------|-------------|-------------|
|-------------|-------------|-------------|-------------|
|-------------|-------------|-------------|-------------|
|-------------|-------------|-------------|-------------|
|-------------|-------------|-------------|-------------|
|-------------|-------------|-------------|-------------|


  TPTP  TPTP    TPTP   TP     TPTP  TPTP    TPTP
|-------------|-------------|-------------|-------------|
|-------------|-------------|-------------|-------------|
|-------------|-------------|-------------|-------------|
|-4S9---4S9---|-4S9---12----|-4S9---4S9---|-4S9------7--|
|-2S7---2S7---|-2S7---10----|-2S7---2S7---|-2S7---9--5--|
|-------------|-------------|-------------|-------7-----|
|
|-------------|-------------|-------------|-------------|
|-------------|-------------|-------------|-------------|
|-------------|-------------|-------------|-------------|
|-------------|-------------|-------------|-------------|
|-------------|-------------|-------------|-------------|
|-------------|-------------|-------------|-------------|


  TPTP  TPTP    TPTP   TP     TPTP  TPTP    TPTP
|-------------|-------------|-------------|-------------|
|-------------|-------------|-------------|-------------|
|-------------|-------------|-------------|-------------|
|-4S9---4S9---|-4S9---12----|-4S9---4S9---|-4S9------7--|
|-2S7---2S7---|-2S7---10----|-2S7---2S7---|-2S7---9--5--|
|-------------|-------------|-------------|-------7-----|
|
|-------------|-------------|-------------|-------------|
|-------------|-------------|-------------|-------------|
|-------------|-------------|-------------|-------------|
|-------------|-------------|-------------|-------------|
|-------------|-------------|-------------|-------------|
|-------------|-------------|-------------|-------------|


  TPTP  TPTP    TPTP   TP     TPTP  TPTP    TPTP
|-------------|-------------|-------------|-------------|
|-------------|-------------|-------------|-------------|
|-------------|-------------|-------------|-------------|
|-4S9---4S9---|-4S9---12----|-4S9---4S9---|-4S9------7--|
|-2S7---2S7---|-2S7---10----|-2S7---2S7---|-2S7---9--5--|
|-------------|-------------|-------------|-------7-----|
|
|-------------|-------------|-------------|-------------|
|-------------|-------------|-------------|-------------|
|-------------|-------------|-------------|-------------|
|-------------|-------------|-------------|-------------|
|-------------|-------------|-------------|-------------|
|-------------|-------------|-------------|-------------|


   Verse
    Gtr I
    PM----|     PM----|       PM----|     PM----|
||--------------------------|-------------------------|
||o-------------------------|-------------------------|
||--------------------------|-------------------------|
||----------6-5-------------|---------6-5-------------|
||o---------4-3---------5-4-|---------4-3---------5-4-|
||--0-0-0-0-----0-0-0-0-3-2-|-0-0-0-0-----0-0-0-0-3-2-|


                            1.,3.            2.,4.
  PM----|     PM----|       TP     TP TP     TP     TP TP
|-------------------------|---------------||-----------------||
|-------------------------|--------------o||----------------o||
|-------------------------|---------------||-----------------||
|---------6-5-------------|---------------||-----------------||
|---------4-3---------5-4-|-3---------1--o||-3--------------o||
|-0-0-0-0-----0-0-0-0-3-2-|--------2------||--------2--1-----||


   Chorus
                                        2/4
                                      4x
||----------------|-------------------||----------*|
||o---------------|------------------o||----------*|
||----------------|-------------------||----------*|
||--6S4-------6S4-|-(4)---------------||----------*|
||o-4S2--5S4--4S2-|-(2)-5S4--5S4-5S4-o||-5-5-5-5--*|
||-------3S2------|-----3S2--3S2-3S2--||-3-3-3-3--*|


Tablature Legend
----------------
 h   - hammer-on
 p   - pull-off
 b   - bend
 pb  - pre-bend
 r   - bend release (if no number after the r, then release immediately)
 /\  - slide into or out of (from/to "nowhere")
 s   - legato slide
 S   - shift slide
<n>  - natural harmonic
[n]  - artificial harmonic
n(n) - tapped harmonic
 ~   - vibrato
 tr  - trill
 T   - tap
 TP  - trem. picking
 PM  - palm muting
\n/  - tremolo bar dip; n = amount to dip
 \n  - tremolo bar down
 n/  - tremolo bar up
/n\  - tremolo bar inverted dip
 =   - hold bend; also acts as connecting device for hammers/pulls
 <>  - volume swell (louder/softer)
 x   - on rhythm slash represents muted slash
 o   - on rhythm slash represents single note slash

Misc Legend
-----------
 |  - bar
||  - double bar
||o - repeat start
o|| - repeat end
*|  - double bar (ending)
 :  - bar (freetime)
 $  - Segno
 &  - Coda
Tempo markers - <E/E./Q/Q./H/H.> = BPM(8/16=s8/s16),
where s8 = swing 8ths, s16 = swing 16ths


***************************************************
* Generated using Power Tab Editor by Brad Larsen *
***************************************************

  Visit MetalTabs.com for more metal tablature

bottom separator

Contact Us | Privacy Policy | Disclaimer | Legal Notice
Copyright © 2001-2014 MetalTabs.com. All Rights Reserved.