top separator

Home

Forum

What's New

Submit a Tab

FAQ

Links

Contact Us

Link to Us

MuSpy.com

MetalTabs.com logo

Bands

0-9

A

B

C

D

E

F

G

H

I

J

K

L

M

N

O

P

Q

R

S

T

U

V

W

X

Y

Z

Search

What

Where
 

My Dying Bride - "A Cruel Taste of Winter" Guitar Tab

Plain Text Version
More My Dying Bride Tabs

Hits: 6211
Rated: 3.88 out of 5 (8 votes)
Updated: 2004-03-22 17:15:34

 

By:

sendpm.gif

email.gif

Important note
This tab is available online because we obtained explicit permission from My Dying Bride or their label.


#----------------------------------PLEASE NOTE---------------------------------#
#This file is the author's own work and represents their interpretation of the #
#song. You may only use this file for private study, scholarship, or research. #
#Unless specified otherwise, this is NOT an official tab from the band members.#
#------------------------------------------------------------------------------#

  Visit MetalTabs.com for more metal tablature
  
Band:  My Dying Bride
Album: The Dreadfull Hours
Song:  A cruel taste of winter


Transcribed By: Martin Bishop
Email:    lamentation_@hotmail.com


Tune your guitar 1.5 steps down.
Listen to the song for repeats.

b - bend
* - palm mute
/ - slide
h - hammer on


|--------------------------------------|
|--------------------------------------|
|--------------------------------------|
|-/9-5-4-4-----------------------------|
|-/7-3-3-2-----------------------------|
|--------------------------------------|

|--------------------------------------|
|--------------------------------------|
|--------------------------------------|
|--------------------------------------|
|-2-3h5-3h5-3-3h5-2h3-2-2h3-0h2-2--2---|
|-0-------------------------------0----|




|---------------------------------------|
|---------------------------------------|
|---------------------------------------|
|-------------9-------7-----------------|
|-/10-7-7-7-9---9b-9----5-5-------------|  gtr1
|---------------------------------------|



|---------------------------------------|
|---------------------------------------|
|---------------------------------------|
|---------------------------------------|
|-5/7-7/9-9h10-10h9-9h10-10-7-----------|  gtr 1
|---------------------------------------|

|---------------------------------------|
|---------------------------------------|
|---------------------------------------|
|---------------------------------------|
|-10-9-5-4------------------------------| gtr 2
|-8--7-3-2------------------------------|

then both guitars play:
|----------------------------------------|
|----------------------------------------|
|----------------------------------------|
|----------------------------------------|
|-10-9-5-4-------------------------------|
|-8--7-3-2-------------------------------|

|----------------------------------------------------|
|----------------------------------------------------|
|----------------------------------------------------|
|----------------------------------------------------|
|--5-2-2-1-2-1-2-5-2-2-1-2-1-2-3-2-2--1-2-1-2-5-1----|
|--3-0-0---------3-0-0-----------0-0----------3-3----|
   * * * * * * * * * * * * * * * * *  * * * *
|----------------------------------------------------|
|----------------------------------------------------|
|----------------------------------------------------|
|----------------------------------------------------|
|--5-2-2-1h2-1h2-5-2-2-1h2-1h2---3-2-2--1h2-1h2-5-3--|
|--3-0-0---------3-0-0-------------0-0----------3-1--|

|----------------------------------------------------|
|----------------------------------------------------|
|----------------------------------------------------|
|----------------------------------------------------|
|-5-2-2---5-3----------------------------------------|
|-3-0-0---3-1----------------------------------------|
  * * *

Thats it.Listen to the song for repeats and rythm.
Have any comments, or questions: lamentation_@hotmail.com.

  Visit MetalTabs.com for more metal tablature

bottom separator

Contact Us | Privacy Policy | Disclaimer | Legal Notice
Copyright © 2001-2014 MetalTabs.com. All Rights Reserved.