top separator

Home

Forum

What's New

Submit a Tab

FAQ

Links

Contact Us

Link to Us

MetalTabs.com logo

Bands

0-9

A

B

C

D

E

F

G

H

I

J

K

L

M

N

O

P

Q

R

S

T

U

V

W

X

Y

Z

Search

What

Where
 

Saturnus - "Pilgrimage of sorrow" Guitar Tab

Plain Text Version
More Saturnus Tabs

Hits: 3213
Rated: 3.50 out of 5 (2 votes)
Updated: 2004-03-20 13:15:35

 

By:

sendpm.gif

email.gif

Important note
This tab is available online because we obtained explicit permission from Saturnus or their label.


#----------------------------------PLEASE NOTE---------------------------------#
#This file is the author's own work and represents their interpretation of the #
#song. You may only use this file for private study, scholarship, or research. #
#Unless specified otherwise, this is NOT an official tab from the band members.#
#------------------------------------------------------------------------------#

  Visit MetalTabs.com for more metal tablature
  
Band:  Saturnus
Album: Paradise belongs to you
Song:  Pilgrimage of sorrow

Transcribed By: Martin Bishop
Email:lamentation_@hotmail.com

/  - slide up to
~  - vibrato
b  - Bend
*  - palm mute
h  - hammer on

Tune your guitar down 1.5 steps (Db Gb Cb Fb Ab Db)


NOTE: I haven't written the repeats but
listen to the cd to get the right timing.


|-----------------------------------------------------------|
|-----------------------------------------------------------|
|-----------------------------------------------------------|
|---------------------------3-3-2-2-------------------------|
|-2-2-2-2h3-2-0-2-2-0-3-3-----------------------------------|
|-0-------------------1-1-----------------------------------|


|-----------------------------------------------------------|
|-----------------------------------------------------------|
|-----------------------------------------------------------|
|--------------------------7-7------------------------------|
|-2-2-2-2h3-2-0-2-2-0-3--3------5-5-------------------------|
|-0-------------------1--1----------------------------------|


|-----------------------------------------------------------|
|-----------------------------------------------------------|
|-----------------------------------------------------------|
|-----------------------------------------------------------|
|-7-------3----------0------6-------------------------------|
|-5-------1----------0------4-------------------------------|


|-----------------------------------------------------------|
|-----------------------------------------------------------|
|-----------------------------------------------------------|
|-----------------------------------------------------------|
|--7-7-5-5-3-3-5--------------------------------------------|
|-----------------------------------------------------------|


|-----------------------------------------------------------|
|--------------------13-12---15b----------------------------|
|-------------7-5-------------------------------------------|
|-------/10-9-----------------------------------------------|
|/10-9------------------------------------------------------|
|-----------------------------------------------------------|


|-----------------------------------------------------------|
|-----------------------------------------------------------|
|-----------------------------------------------------------|
|-----------------------------------------------------------|
|--0h2--2-2-0h2--2---1~-------------------------------------|
|--0h0--0-0-0h0--0------------------------------------------|
                 *

|-----------------------------------------------------------|
|-----------------------------------------------------------|
|-----------------------------------------------------------|
|-----------------------------------------------------------|
|--0h2--2-2-0h2--2---0-2-3-/5-3-2---------------------------|
|--0h0--0-0-0h0--0------------------------------------------|
                 *

|-----------------------------------------------------------|
|-----------------------------------------------------------|
|-----------------------------------------------------------|
|-0-2-2------0-2-2-0---0-2-2--------------------------------|
|--------10----------9-------12------8-7-3-2----------------|
|-----------------------------------------------------------|


|-----------------------------------------------------------|
|---------------8-7-----------------------------------------|
|-------7-5-9-9-----9-9-------------------------------------|
|-9-9-9-----------------------------------------------------|
|-----------------------------------------------------------|
|-----------------------------------------------------------|

That's basically it. Questions, Comments, Suggestions, anything concerning
this or other tabs, Please email me! Hope you enjoy it.

  Visit MetalTabs.com for more metal tablature

bottom separator

Contact Us | Privacy Policy | Disclaimer | Legal Notice
Copyright © 2001-2014 MetalTabs.com. All Rights Reserved.