top separator

Home

Forum

What's New

Submit a Tab

FAQ

Links

Contact Us

Link to Us

MuSpy.com

MetalTabs.com logo

Bands

0-9

A

B

C

D

E

F

G

H

I

J

K

L

M

N

O

P

Q

R

S

T

U

V

W

X

Y

Z

Search

What

Where
 

Finntroll - "Midnattens Widunder" Guitar Tab

Plain Text Version
More Finntroll Tabs

Hits: 7497
Rated: 4.57 out of 5 (7 votes)
Updated: 2004-03-17 10:14:45

 

By:

Darkenelf

sendpm.gif

email.gif

Important note
This tab is available online because we obtained explicit permission from Finntroll or their label.


#----------------------------------PLEASE NOTE---------------------------------#
#This file is the author's own work and represents their interpretation of the #
#song. You may only use this file for private study, scholarship, or research. #
#Unless specified otherwise, this is NOT an official tab from the band members.#
#------------------------------------------------------------------------------#

  Visit MetalTabs.com for more metal tablature
  
Band: Finntroll
Album: Midnattens Widunder
Song: Midnattens Widunder
Tabbed by: Martijn Wietsma (Darkenelf)
Tab Date: 16-03-2004
Email: northerland@yahoo.co.uk
Version: 0.1

Standard E Tuning

riff A
|------------------------------------------------------------|
|------------------------------------------------------------|
|------------------------------------------------------------|
|------------------------------------------------------------|
|-4----------5----7------4----------5----7-------------------|
|-2-22-22-22-5-55-7-77---2-22-22-22-5-55-7-77----------------|
    .. .. ..   ..   ..     .. .. ..   ..   ..           (3x)

riff B (0:20)
|------------------------------------------------------------|
|------------------------------------------------------------|
|------------------------------------------------------------|
|------------------------------------------------------------|
|-3------3------3------3-3---4------4------4------4-7-6-4----|
|-1-111--1-111--1-111--1-1---2-222--2-222--2-222--2-5-4-2----|
                                                        (4x)
repeat riff A 6x (0:45)
repeat riff B 4x (1:07)

riff C (1:30)
|------------------------------------------------------------|
|------------------------------------------------------------|
|---------------------------------------------6-4------------|
|-6------6------7------7------6------6------7-4-2-7----------|
|-4-444--4-444--5-555--5-555--4-444--4-444--5-----5----------|
|------------------------------------------------------------|
                                                        (1x)
riff D (1:43)
|------------------------------------------------------------|
|------------------------------------------------------------|
|------------------------------------------------------------|
|------------------------------------------------------------|
|-3------3------4------4------3------3------4-7-6-4----------|
|-1-111--1-111--2-222--2-222--1-111--1-111--2-5-4-2----------|
                                                        (2x)
riff E (1:54)
|------------------------------------------------------------|
|------------------------------------------------------------|
|------------------------------------------------------------|
|------------------------------------------------------------|
|-9~---5--7----9~---5--7----9~---5--7----9~---5--7----5--7/9-|
|-7----3--5----7----3--5----7----3--5----7----3--5----3--5/7-|
                                                        (1x)
riff F (2:18)
|------------------------------------------------------------|
|------------------------------------------------------------|
|------------------------------------------------------------|
|------------------------------------------------------------|
|-9999-9999-9999-9999-5555-5555-5555-/-7777-/----------------|
|-7777-7777-7777-7777-3333-3333-3333-/-5555-/----------------|
                                                        (4x)
riff G (2:32) (solo)
|-/10~-9-7--9h10--/10~-9-7-------7~--10-9-(10p9~h)----7~-----|
|----------------------------10--------------------10--------|
|------------------------------------------------------------|
|------------------------------------------------------------|
|------------------------------------------------------------|
|------------------------------------------------------------|
                                                        (2x)
repeat riff F 1x
repeat riff A 3x (3:05)
repeat riff B 2x (3:30)
repeat riff E 4x (3:42)
repeat riff F 4x (Till end of song!)

  Visit MetalTabs.com for more metal tablature

bottom separator

Contact Us | Privacy Policy | Disclaimer | Legal Notice
Copyright © 2001-2014 MetalTabs.com. All Rights Reserved.