top separator

Home

Forum

What's New

Submit a Tab

FAQ

Links

Contact Us

Link to Us

MetalTabs.com logo

Bands

0-9

A

B

C

D

E

F

G

H

I

J

K

L

M

N

O

P

Q

R

S

T

U

V

W

X

Y

Z

Search

What

Where
 

Týr - "The Rune" Guitar Tab

Plain Text Version
More Týr Tabs

Hits: 4313
Rated: 4.50 out of 5 (4 votes)
Updated: 2004-03-16 03:35:24

 

By:

sendpm.gif

email.gif

Important note
This tab is available online because we obtained explicit permission from Týr or their label.


#----------------------------------PLEASE NOTE---------------------------------#
#This file is the author's own work and represents their interpretation of the #
#song. You may only use this file for private study, scholarship, or research. #
#Unless specified otherwise, this is NOT an official tab from the band members.#
#------------------------------------------------------------------------------#

  Visit MetalTabs.com for more metal tablature
  
this isn't a complete tab for the song but hopefully will act as guidance
for those who need it.

follow the rhythm and tempo of that on the cd.

questions: ftrooploser@hotmail.com




E  :------------------------------------|
B  :12-0-7-12-7-0-12-0-7-12-7-0-12-0-7-0|
G  :------------------------------------|
D  :------------------------------------|
A  :------------------------------------|
E  :------------------------------------|

E  :------------------------------------|
B  :------------------------------------|
G  :------------------------------------|
D  :------------------------------------|
A  :------------------------------------|
E  :------------------------------------|

=============================================================================

E  :-------------------------------------|
B  :12-0-7-12-7-0-12-0-7-12-7-0-10-0-11-0|
G  :-------------------------------------|
D  :-------------------------------------|
A  :-------------------------------------|
E  :-------------------------------------|

E  :-------------------------------------|
B  :-------------------------------------|
G  :-------------------------------------|
D  :-------------------------------------|
A  :-------------------------------------|
E  :-------------------------------------|

=============================================================================

E  :------------------------------------|
B  :12-0-7-12-7-0-12-0-7-12-7-0-12-0-7-0|
G  :------------------------------------|
D  :------------------------------------|
A  :------------------------------------|
E  :------------------------------------|

E  :------------------------------------|
B  :------------------------------------|
G  :------------------------------------|
D  :------------------------------------|
A  :------------------------------------|
E  :------------------------------------|

=============================================================================

E  :-------------------------------------|
B  :12-0-7-12-7-0-12-0-7-12-7-0-10-0-11-0|
G  :-------------------------------------|
D  :-------------------------------------|
A  :-------------------------------------|
E  :-------------------------------------|

E  :-------------------------------------|
B  :-------------------------------------|
G  :-------------------------------------|
D  :-------------------------------------|
A  :-------------------------------------|
E  :-------------------------------------|

=============================================================================

E  :-----------------------------------------|
B  :19-0-12-19-12-0-19-0-12-19-12-0-19-0-12-0|
G  :-----------------------------------------|
D  :-----------------------------------------|
A  :-----------------------------------------|
E  :-----------------------------------------|

E  :-----------------------------------------|
B  :-----------------------------------------|
G  :-----------------------------------------|
D  :-----------------------------------------|
A  :-----------------------------------------|
E  :-----------------------------------------|

=============================================================================

E  :---------------------------------------|
B  :19-0-12-0-17-0-19-0-10-0-17-0-15-0-14-0|
G  :---------------------------------------|
D  :---------------------------------------|
A  :---------------------------------------|
E  :---------------------------------------|

E  :---------------------------------------|
B  :---------------------------------------|
G  :---------------------------------------|
D  :---------------------------------------|
A  :---------------------------------------|
E  :---------------------------------------|

=============================================================================

E  :-----------------------------------------|
B  :15-0-12-15-12-0-15-0-12-15-12-0-15-0-12-0|
G  :-----------------------------------------|
D  :-----------------------------------------|
A  :-----------------------------------------|
E  :-----------------------------------------|

E  :-----------------------------------------|
B  :-----------------------------------------|
G  :-----------------------------------------|
D  :-----------------------------------------|
A  :-----------------------------------------|
E  :-----------------------------------------|

=============================================================================

E  :---------------------------------------|
B  :15-0-12-0-14-0-17-0-10-0-17-0-15-0-14-0|
G  :---------------------------------------|
D  :---------------------------------------|
A  :---------------------------------------|
E  :---------------------------------------|

E  :---------------------------------------|
B  :---------------------------------------|
G  :---------------------------------------|
D  :---------------------------------------|
A  :---------------------------------------|
E  :---------------------------------------|

=============================================================================

E  :-----------------------------------------|
B  :19-0-12-19-12-0-19-0-12-19-12-0-19-0-12-0|
G  :-----------------------------------------|
D  :-----------------------------------------|
A  :-----------------------------------------|
E  :-----------------------------------------|

E  :-----------------------------------------|
B  :-----------------------------------------|
G  :-----------------------------------------|
D  :-----------------------------------------|
A  :------5--4--5----*-------4--5-6--7----*--|
E  :-----------------------------------------|

=============================================================================

E  :---------------------------------------|
B  :19-0-12-0-17-0-19-0-10-0-17-0-15-0-14-0|
G  :---------------------------------------|
D  :---------------------------------------|
A  :---------------------------------------|
E  :---------------------------------------|

E  :---------------------------------------|
B  :---------------------------------------|
G  :---------------------------------------|
D  :---------------------------------------|
A  :-7-5--3-4--5----*------7--8-9-11----*--|
E  :---------------------------------------|

=============================================================================

E  :------------------------------------------|
B  :15-0-12-15-12-0-15-0-12-15-12--0-15-0-12-0|
G  :------------------------------------------|
D  :------------------------------------------|
A  :------------------------------------------|
E  :------------------------------------------|

E  :------------------------------------------|
B  :------------------------------------------|
G  :------------------------------------------|
D  :------------------------------------------|
A  :------9--7--9----*-------9-10-11-12----*--|
E  :------------------------------------------|

=============================================================================

E  :-------------------------------------|----------------|
B  :15-0-12-0-14-0-17-0-10-0-17----15-14-|-*--------------|
G  :-------------------------------------|----------------|
D  :-------------------------------------|----4-*---4-5---|
A  :-------------------------------------|----2-*-------5-|
E  :-------------------------------------|------0-2-----3-|

E  :-------------------------------------|----------------|
B  :-------------------------------------|----------------|
G  :-------------------------------------|----------------|
D  :-------------------------------------|----------------|
A  :-9-7--5-6--7----*------9-10-11--9-10-|-*--------------|
E  :-------------------------------------|----------------|

=============================================================================

E  :----------------|----------------|----------------|----------------|
B  :----------------|----------------|----------------|----------------|
G  :----------------|----------------|----------------|----------------|
D  :--4-5-----2-4-2-|0---------4-5---|--4-5-----2-4-5-|*----------4-5--|
A  :------7---------|----2---------5-|------7---------|-----2-------*--|
E  :------5---------|------0-2-*---3-|------5---------|-------0-2-*---3|

E  :----------------|----------------|----------------|----------------|
B  :----------------|----------------|----------------|----------------|
G  :----------------|----------------|----------------|----------------|
D  :----------------|----------------|----------------|----------------|
A  :----------------|----------------|----------------|----------------|
E  :----------------|----------------|----------------|----------------|

=============================================================================

E  :----------------|----------------|----------------|-----------------|
B  :----------------|----------------|----------------|-----------------|
G  :----------------|----------------|----------------|-/6-*---6-*---6-*|
D  :---4-5-----2-4-2|-0---*-----4-5--|---4-5-----2-4-5|------4-*---4-*--|
A  :----------------|-----2----------|----------------|----2-*---2-*---2|
E  :-------5--------|-------0-2-*---3|-------5--------|-----------------|

E  :----------------|----------------|----------------|-----------------|
B  :----------------|----------------|----------------|-----------------|
G  :----------------|----------------|----------------|-----------------|
D  :----------------|----------------|----------------|-----------------|
A  :----------------|----------------|----------------|-----------------|
E  :----------------|----------------|----------------|-----------------|

=============================================================================

E  :----------------|-----------------|----------------|
B  :----------------|/-5-*---5-*---5-*|---5-*---5-*---5|
G  :---6-*---6-*---6|--*---4-*---4-*--|-4-*---4-*---4-*|
D  :-4-*---4-*---4-*|----2-*---2-*---2|-*---2-*---2-*--|
A  :-*---2-*---2-*--|-----------------|----------------|
E  :----------------|-----------------|----------------|

E  :----------------|-----------------|----------------|
B  :----------------|-----------------|----------------|
G  :----------------|-----------------|----------------|
D  :----------------|-----------------|----------------|
A  :----------------|-----------------|----------------|
E  :----------------|-----------------|----------------|

=============================================================================

E  :-----------------|--------------10-------*|------------9-5-----|
B  :-*---------------|7-8-10-11^12-------10^11|-r10-8-7----*---5---|
G  :---------7-6-9-7-|*-----------------------|--------------------|
D  :--7-11-9-*-------|------------------------|--------------------|
A  :-----------------|------------------------|--------------------|
E  :-----------------|------------------------|--------------------|

E  :-----------------|------------------------|--------------------|
B  :-----------------|------------------------|--------------------|
G  :-----------------|------------------------|--------------------|
D  :-----------------|------------------------|--------------------|
A  :-----------------|------------------------|--------------------|
E  :-----------------|------------------------|--------------------|

=============================================================================

E  :12^14----12^14-12-10-9-10|--------------14-17-14--*--------|
B  :-*-----------------------|-----------15--*-------15--*-----|
G  :-------------------------|--------16--*-------------16--*--|
D  :-------------------------|-----17--*-------------------17--|
A  :-------------------------|---------------------------------|
E  :-------------------------|---------------------------------|

E  :-------------------------|---------------------------------|
B  :-------------------------|---------------------------------|
G  :-------------------------|---------------------------------|
D  :-------------------------|---------------------------------|
A  :-------------------------|---------------------------------|
E  :-------------------------|---------------------------------|

=============================================================================

E  :--------------------21-|------19----*----------|
B  :-----------------------|-----------22--------*-|
G  :--------------16---<18>|-----<16>---*-------15-|
D  :---16--17--19----------|----------<19>-------*-|
A  :-----------------------|-----------------------|
E  :-----------------------|-----------------------|

E  :-----------------------|-----------------------|
B  :-----------------------|-----------------------|
G  :-----------------------|-----------------------|
D  :-----------------------|-----------------------|
A  :-----------------------|-----------------------|
E  :-----------------------|-----------------------|

=============================================================================

E  :----------------------|----------------|-----------------|
B  :---------------15--*--|----------------|-----------------|
G  :----16-18---18--*-18-~|----------------|--------------18-|
D  :----------------------|----------------|-----------------|
A  :----------------------|----------------|-----------------|
E  :----------------------|----------------|-----------------|

E  :----------------------|----------------|-----------------|
B  :----------------------|----------------|-----------------|
G  :-------------------6--|----6-----6-----|6-----6-----6----|
D  :----------------------|--4-----4-----4-|----4-----4------|
A  :----------------------|2-----2-----2---|--2-----2------2-|
E  :----------------------|----------------|-----------------|

=============================================================================

E  :-------------------------|----------------------|----------0-----|
B  :15-/16--*----16--*----16-|-*----16--*----16--*--|--------0-------|
G  :-*--------14--*----14--*-|---14--*----14--*-----|------0---------|
D  :-------13--*----13--*----|13--*----13--*--------|----------------|
A  :-------------------------|----------------------|----4-----------|
E  :-------------------------|----------------------|----------------|

E  :-------------------------|----------------------|----------------|
B  :-------------------------|----------------------|----------------|
G  :-----6--5--------5-------|-5--------5-----------|----------------|
D  :-4---------------------5-|-------5--------5-----|----------------|
A  :--------------3-----3----|----3--------3--------|----------------|
E  :-----------0-------------|----------------------|----------------|

=============================================================================

E  :-------0--------|-----------------|----------------|0---------------|
B  :-----2----------|-2-3-0--------2-3|-0---------3----|---------3-2----|
G  :---3------------|-----------------|---------0------|-------0--------|
D  :-4--------------|-----------------|-------4--------|-----4---------4|
A  :---------------2|------------0----|----------------|--0-------------|
E  :----------------|-----------------|-----3----------|----------------|

E  :----------------|-----------------|----------------|----------------|
B  :----------------|-----------------|----------------|----------------|
G  :----------------|-----------------|----------------|----------------|
D  :----------------|-----------------|----------------|----------------|
A  :----------------|-----------------|----------------|----------------|
E  :----------------|-----------------|----------------|----------------|

=============================================================================

E  :----0-----------|-0-------------0|------------0---|----------------|
B  :------3---------|---3---------0--|----------2-----|------2-3-0-----|
G  :-0-------------0|-----------0----|--------3-------|----------------|
D  :-------------4--|----------------|------4---------|----------------|
A  :----------------|---------4------|----------------|----2-----------|
E  :-----------3----|----------------|----------------|----------------|

E  :----------------|----------------|----------------|----------------|
B  :----------------|----------------|----------------|----------------|
G  :----------------|----------------|----------------|----------------|
D  :----------------|----------------|----------------|----------------|
A  :----------------|----------------|----------------|----------------|
E  :----------------|----------------|----------------|----------------|

=============================================================================

E  :-----------------|-----0----------|---------0------|------0---------|
B  :---2-3-0---------|3-------------3-|2----------3----|--------3-------|
G  :---------------0-|------------0---|------0---------|----0-----------|
D  :-------------4---|----------4-----|----4-----------|--4-------------|
A  :-0---------------|-------0--------|----------------|--------------4-|
E  :-----------3-----|----------------|----------------|3---------------|

E  :-----------------|----------------|----------------|----------------|
B  :-----------------|----------------|----------------|----------------|
G  :-----------------|----------------|----------------|----------------|
D  :-----------------|----------------|----------------|----------------|
A  :-----------------|----------------|----------------|----------------|
E  :-----------------|----------------|----------------|----------------|

=============================================================================

E  :----0-----------|-0--------------|-----------------|----------0-----|
B  :--0------------2|-----------2-3-0|--------2-3-0----|-----3----------|
G  :0------------3--|----------------|-----------------|---0------------|
D  :-----------4----|----------------|-----------------|-4-------------4|
A  :----------------|---------2------|------0----------|------------0---|
E  :----------------|----------------|----------------3|----------------|

E  :----------------|----------------|-----------------|----------------|
B  :----------------|----------------|-----------------|----------------|
G  :----------------|----------------|-----------------|----------------|
D  :----------------|----------------|-----------------|----------------|
A  :----------------|----------------|-----------------|----------------|
E  :----------------|----------------|-----------------|----------------|

=============================================================================

E  :--------------0-|-----------0----|--------0-------|-----0----------|
B  :---3-2----------|3------------3--|------0---------|---2-----------2|
G  :-0---------0----|---------0------|----0-----------|-3--------------|
D  :---------4------|-------4--------|---------------4|----------------|
A  :----------------|----------------|--4-------------|-------------2--|
E  :----------------|-----3----------|----------------|----------------|

E  :----------------|----------------|----------------|----------------|
B  :----------------|----------------|----------------|----------------|
G  :----------------|----------------|----------------|----------------|
D  :----------------|----------------|----------------|----------------|
A  :----------------|----------------|----------------|----------------|
E  :----------------|----------------|----------------|----------------|

=============================================================================

E  :-----------------|--------------0-|----------------|--0------------0|
B  :-3-0--------2-3-0|---------3------|-------3-2------|----3-----------|
G  :-----------------|-------0--------|-----0---------0|-------------0--|
D  :-----------------|-----4----------|---4---------4--|-----------4----|
A  :----------0------|----------------|0---------------|----------------|
E  :-----------------|---3------------|----------------|---------3------|

E  :-----------------|----------------|----------------|----------------|
B  :-----------------|----------------|----------------|----------------|
G  :-----------------|----------------|----------------|----------------|
D  :-----------------|----------------|----------------|----------------|
A  :-----------------|----------------|----------------|----------------|
E  :-----------------|----------------|----------------|----------------|

=============================================================================

E  :----------------|------------------|-------------------|
B  :-3--------------|------------------|-------------------|
G  :----------------|------------------|-------------------|
D  :-------------4--|---------4--------|-------------------|
A  :-------4-0-2----|-4-0-2------4-0-h1|h2-p1-2-1-2-1-2--4-|
E  :-------2--------|-2----------2-----|-----------------2-|

E  :----------------|------------------|-------------------|
B  :----------------|------------------|-------------------|
G  :----------------|------------------|-------------------|
D  :----------------|------------------|-------------------|
A  :----------------|------------------|-------------------|
E  :----------------|------------------|-------------------|

=============================================================================

E  :----------------|
B  :----------------|
G  :----------------|
D  :----------------|
A  :0-1----4-0-2----|
E  :-------2--------|

E  :----------------|
B  :----------------|
G  :----------------|
D  :----------------|
A  :----------------|
E  :----------------|

  Visit MetalTabs.com for more metal tablature

bottom separator

Contact Us | Privacy Policy | Disclaimer | Legal Notice
Copyright © 2001-2014 MetalTabs.com. All Rights Reserved.