#----------------------------------PLEASE NOTE---------------------------------#
#This file is the author's own work and represents their interpretation of the #
#song. You may only use this file for private study, scholarship, or research. #
#Unless specified otherwise, this is NOT an official tab from the band members.#
#------------------------------------------------------------------------------#

  Visit MetalTabs.com for more metal tablature
  
Riff 1
|-------------------------------------------------------------------|
|-------------------------------------------------------------------|
|-------------------------------------------------------------------|
|-------------------------------------------------------------------|
|-3-----4-----5-----4-----------------------------------------------|
|-1-----2-----3-----2-----------------------------------------------|


Riff 2

|-------------------------------------------------------------------|
|-------------------------------------------------------------------|
|-------------------------------------------------------------------|
|-------------------------------------------------------------------|
|-------------------------------------------------------------------|
|-1-1-1-2-2-2-3-----------------------------------------------------|

Riff 3

|-------------------------------------------------------------------|
|-------------------------------------------------------------------|
|-------------------------------------------------------------------|
|-------------------------------------------------------------------|
|-5---5---5-55-3----------------------------------------------------|
|-3--3--3-33-1----------------------------------------------------|


Play Riff 1 (x2)
Play Riff 3 (x4)
Play Riff 2 (x4)
Play Riff 3 (x4)
Play Riff 2 (x4)
Play Riff 3 (x4)
Play Riff 1 (x4)
Play Riff 3 (x4)

  Visit MetalTabs.com for more metal tablature