top separator

Home

Forum

What's New

Submit a Tab

FAQ

Links

Contact Us

Link to Us

MetalTabs.com logo

Bands

0-9

A

B

C

D

E

F

G

H

I

J

K

L

M

N

O

P

Q

R

S

T

U

V

W

X

Y

Z

Search

What

Where
 

Týr - "God Of War" Guitar Tab

Plain Text Version
More Týr Tabs

Hits: 14314
Rated: 4.75 out of 5 (8 votes)
Updated: 2005-08-24 15:11:50

 

By:

Otiz

sendpm.gif

email.gif

Important note
This tab is available online because we obtained explicit permission from Týr or their label.


#----------------------------------PLEASE NOTE---------------------------------#
#This file is the author's own work and represents their interpretation of the #
#song. You may only use this file for private study, scholarship, or research. #
#Unless specified otherwise, this is NOT an official tab from the band members.#
#------------------------------------------------------------------------------#

  Visit MetalTabs.com for more metal tablature
  
Song: God of War
Artist: Týr
Album: How far to Asgaard

Tabbed by Finnbogi the Icelander (otiz@d10.is)

Standard tuning (EADGBe)
Bend = b
Bend and release = br

This was tabbed for a 6-string while it's actually played with a 7-string.
If you wanna play it like it's played with a 7-string it's pretty obvious
what needs to be added.

Intro

e |----------------12-12-------------------------------------------|
B |-12-12----12-14-------14-12-14-11-11-12-14-12-12----------------|
G |-------14----------------------------------------14-11----------|
D |----------------------------------------------------------------|
A |----------------------------------------------------------------|
E |----------------------------------------------------------------|

e |----------------12-12-------------------------------------------|
B |-12-12----12-14-------14-12-14-11-11-12-14-12-------------------|
G |-------14-------------------------------------------------------|
D |----------------------------------------------------------------|
A |----------------------------------------------------------------|
E |----------------------------------------------------------------|

e |----------12-14------------------12-14-14-----------------------|
B |-14-14-15-------15-12---14-14-15--------------------------------|
G |----------------------------------------------------------------|
D |----------------------------------------------------------------|
A |----------------------------------------------------------------|
E |----------------------------------------------------------------|

e |-14-15-14h15p14----15-14-14h15p14-------------------------------|
B |----------------17----------------17-15-17-15h17p15-14-14-14-15-|
G |----------------------------------------------------------------|
D |----------------------------------------------------------------|
A |----------------------------------------------------------------|
E |----------------------------------------------------------------|

e |----15-14h15p14----15-14-14h15p14-------------------------------|
B |-17-------------17----------------17-15-17-15h17p15-14-17-------|
G |----------------------------------------------------------------|
D |----------------------------------------------------------------|
A |----------------------------------------------------------------|
E |----------------------------------------------------------------|

e |----------------------------------------------------------------|
B |----12-14----12-14----12-14----12-14----------------------------|
G |-11-------11-------11-------11----------------------------------|
D |----------------------------------------------------------------|
A |----------------------------------------------------------------|
E |----------------------------------------------------------------|


Riff 1
Listen to album for rhythm.

e |----------------------------------------------------------------|
B |----------------------------------------------------------------|
G |----------------------------------------------------------------|
D |----4-3-4------0-2-0-------4-3-4-----0-2-0----------------------|
A |-2--4-3-4—-2-4-0-2-0-4-2-2-4-3-4-2-4-0-2-0-4--------------------|
E |-2---------2-4-------4-2-2-------2-4-------4--------------------|

e |----------------------------------------------------------------|
B |----------------------------------------------------------------|
G |----------------------------------------------------------------|
D |----4-3-4------0-2-0-------4-3-4-----0-2-0----------------------|
A |-2--4-3-4—-2-4-0-2-0-4-2-2-4-3-4-2-4-0-2-0-4--------------------|
E |-2---------2-4-------4-2-2-------2-4-------4--------------------|

Riff 2

e |----------------------------------------------------------------|
B |----------------------------------------------------------------|
G |-------1---------------1----------------------------------------|
D |-0-2-4-1-4-2-0---0-2-4-1-4-2-0----------------------------------|
A |-0-2-4---4-2-0-4-0-2-4---4-2-0-4--------------------------------|
E |---------------4---------------4--------------------------------|
  |                                                                |
e |----------------------------------------------------------------|
B |-------2--------------------2---2-------------------------------|
G |-2--4-----4--2--1--2-4-1--2---4---2-1-2---3---------------------|
D |----------------------------------------4-----------------------|
A |----------------------------------------------------------------|
E |----------------------------------------------------------------|

Riff 3

e |----------------------------------------------------------------|
B |----------------------------------------------------------------|
G |----------------------------------------------------------------|
D |----------------------------------------------------------------|
A |-2---2-2-2---2---2-2-2---2---2-2-2---2---2-2-2--5-4-5--4--------|
E |-2-2-2-2-2-2-2-2-2-2-2-2-2-2-2-2-2-2-2-2-2-2-2--5-4-5--4--------|
  |                                                                |
e |----------------------------------------------------------------|
B |----------------------------------------------------------------|
G |----------------------------------------------------------------|
D |-------------------------------------------------------------4--|
A |-2---2-2-2---2---2-2-2---2---2-2-2---2---2-2-2--5-4-5--4-2p0----|
E |-2-2-2-2-2-2-2-2-2-2-2-2-2-2-2-2-2-2-2-2-2-2-2------------------|

Riff 4

e |----------------------------------------------------------------|
B |----------------------------------------------------------------|
G |----------------------------------------------------------------|
D |----------------------------------------------------------------|
A |-2----------------------------------------------5-4-5-4---------|
E |-2----------------------------------------------5-4-5-4---------|
  |                                                                |
e |----------------------------------------------------------------|
B |----------------------------------------------------------------|
G |----------------------------------------------------------------|
D |-------------------------------------------------------------4--|
A |-2----------------------------------------------5-4-5--4-2p0----|
E |-2--------------------------------------------------------------|

Riff 5

e |----------------------------------------------------------------|
B |-------5--------------------------------------------------------|
G |-4-----4-------7-----6-----4-----6-----7------------------------|
D |-4-------------7-----7-----4-----7-----7------------------------|
A |----------------------------------------------------------------|
E |----------------------------------------------------------------|
  |                                                                |
e |----------------------------------------------------------------|
B |----------------------------------------------------------------|
G |----------------------------------------------------------------|
D |----------------------------------------------------------------|
A |---2-2-----2-2---2-2---2-2---2-2---2-2---2-2-2-22-2-2-----------|
E |---2-2-----2-2---2-2---2-2---2-2---2-2---2-2-2-22-2-2-----------|

e |----------------------------------------------------------------|
B |-----------------------------------------------5----------------|
G |-4-----6-----7--------------4-----6-----7---4—-4--7—----7-----6-|
D |-4-----7-----7--------------4—----7-----7---4-----7-----7-----6-|
A |----------------------------------------------------------------|
E |----------------------------------------------------------------|
  |                                                                |
e |----------------------------------------------------------------|
B |----------------------------------------------------------------|
G |----------------------------------------------------------------|
D |----------------------------------------------------------------|
A |---2-2---2-2---2-2-2-22-2-2---2-2---2-2-------------2-2---2-2---|
E |---2-2---2-2---2-2-2-22-2-2---2-2---2-2-------------2-2---2-2---|

Riff 6

e |----------------------------------------------------------------|
B |-5-----7-----8--------------8-----10----12----------------------|
G |-4-----6-----7--------------7-----9-----11----------------------|
D |----------------------------------------------------------------|
A |----------------------------------------------------------------|
E |----------------------------------------------------------------|
  |                                                                |
e |----------------------------------------------------------------|
B |----------------------------------------------------------------|
G |----------------------------------------------------------------|
D |---2-2---2-2---2-2-2-22-2-2---2—2---2-2----2-2-2-22-2-2---------|
A |---2-2---2-2---2-2-2-22-2-2---2—2---2-2----2-2-2-22-2-2---------|
E |----------------------------------------------------------------|

e |----------------------------------------------------------------|
B |-5-----7-----8—-7—-6--------------------------------------------|
G |-4-----6-----7--------7--4--------------------------------------|
D |----------------------7--4--------------------------------------|
A |----------------------------------------------------------------|
E |----------------------------------------------------------------|
  |                           Here you bend down to 0 and release  |
e |----------------------------------------------------------------|
B |----------------------------------------------------------------|
G |----------------------------------------------------------------|
D |---2-2---2-2----------------------------------------------------|
A |---2-2---2-2-------------------2br------------------------------|
E |-------------------------------2br------------------------------|

Riff 7

e |----------------------------------------------------------------|
B |----------------------------------------------------------------|
G |---4-6-7-6-4---4-6-7-6-4---4-6-7-6-4---4-6-7-9-7-6--------------|
D |-4-----------5-----------6-----------7-------------9-7-5--------|
A |----------------------------------------------------------------|
E |----------------------------------------------------------------|
  |                                                                |
e |----------------------------------------------------------------|
B |----------------------------------------------------------------|
G |----------------------------------------------------------------|
D |-4-----4-----4-----4-----4-----4-----7-----7-----4-----4--------|
A |-4-4-4-4-4-4-4-4-4-4-4-4-4-4-4-4-4-4-7-7-7-7-7-7---7-5----------|
E |---2-2---2-2---2-2---2-2---2-2---2-2---5-5---5-5----------------|

Riff 8

e |----------------------------------------------------------------|
B |----------------------------------------------------------------|
G |---4-6-7-6-4---4-6-7-6-4---4-6-7-6-4---4-6-7-9-7-6--------------|
D |-4-----------5-----------6-----------7-------------9-7-5--------|
A |----------------------------------------------------------------|
E |----------------------------------------------------------------|
  |                                                                |
e |----------------------------------------------------------------|
B |----------------------------------------------------------------|
G |----------------------------------------------------------------|
D |-----2-4-2-------2-4-2-------2-4-2---------4-5-4-------2--------|
A |-2-5-------5-2-5-------5-2-5-------5-4-5-7-------7-5-4----------|
E |----------------------------------------------------------------|

Sorry no solo yet… I lack the skill.. only been playing for a year and a half.
E-mail me if you’ve got it.

  Visit MetalTabs.com for more metal tablature

bottom separator

Contact Us | Privacy Policy | Disclaimer | Legal Notice
Copyright © 2001-2014 MetalTabs.com. All Rights Reserved.