top separator

Home

Forum

What's New

Submit a Tab

FAQ

Links

Contact Us

Link to Us

MuSpy.com

MetalTabs.com logo

Bands

0-9

A

B

C

D

E

F

G

H

I

J

K

L

M

N

O

P

Q

R

S

T

U

V

W

X

Y

Z

Search

What

Where
 

Centurian - "Fornicating The Nazarene" Guitar Tab

Plain Text Version
More Centurian Tabs

Hits: 3016
Updated: 2004-03-15 05:22:59

 

By:

BestialWarrior

sendpm.gif

email.gif

Important note
We did our best to reach Centurian and ask for their permission to publish this tab. Unfortunately they did not respond to our requests or we could not find a way to contact them. This tab is available online until Centurian tells us to take it down.


#----------------------------------PLEASE NOTE---------------------------------#
#This file is the author's own work and represents their interpretation of the #
#song. You may only use this file for private study, scholarship, or research. #
#Unless specified otherwise, this is NOT an official tab from the band members.#
#------------------------------------------------------------------------------#

  Visit MetalTabs.com for more metal tablature
  
Band:  (CENTURIAN)
Album: (LIBER ZAR ZAX)
Song:  (FORNICATING THE NAZARENE)

Copyright (c)  (EXTREMIST RECORDS) (2001)
Version 1.0 - (3-15-04)

Transcribed By: (BestialWarrior)
Email:           Bestialson2003@yahoo.com

.  - palm mute           /  - slide up to
\  - slide down to       ~  - vibrato
h  - hammer on           b  - Bend
p  - pull off            Suffixes for bend
t  - tap                 f  - full bend    h - half bend
ph - pinched harmonic    q  - quarter bend t - tap bend
*  - see comment         ^  - Hold bend    r release bend
x  - Stuccatto           ~  - vibrato bend
,  - slight palm mute    () - ghost note, sustained note
"  - tremolo note        <> - Trill

Tunning : Tune down One whole step.= D.

Opening Cue: Drum Hi-Hat..

Riff#1.Fast.
|------------------------||
|------------------------||
|--3-2-""""""""""""""""""||
|2-1-0-111111444444111111||
|0-----..................||
|------------------------||

Riff#2.Fast.
     (Play 3X)
|------------------|-------------T------------------------||
|------""""""""""""|------""""--(3)-----------------------||
|--3-2-222222222222|--3-2-2222-2/3-3-3-3------------------||
|2-1-0-------------|2-1-0----------1-1-1--h-p-t-p-t--3-6-3||
|0-----------------|0--------------.-.---0/1\0/1\0/1-1-4-1||
|------------------|--------------------------------------||

Repeat Riff#1,2.

Riff#3.Fast (where indicated).
       (Play 3X)
|----------------------|------------------||
|----------------------|------------------||
|----------------------|----------""""""""||
|---T---T--""""""""""""|---T---T--55555555||
|0-2\0-4\0-000000000000|0-2\0-4\0-44444444||
|----------............|----------........||

Riff#4. Fast..(Timing is a little tricky here)
Note:(Play up to Asterisk on the (8th)Time)
|----------------------------------------||
|----------------------------------------||
|----------------------------------------||
|-------------------------------------*--||
|-------------------------------------3-2||
|0000-2/4-4444-4-2-1-0-0000-0-2-3-4-1-1-0||
 ....     ....         ....         .

Repeat Riffs#3,4(Play up to asterisk on 4th time)
Repeat Riffs#1,2,1,2,3.

Riff#5.(Similiar to riff#3.)
    (Play 3x times)
|----------------------|-----------||
|----------------------|-----------||
|----------""""""""""""|-----------||
|----------000011112222|3-2-6-3-2-3||
|0-2\0-4\0-............|1-0-4-1-0-1||
|----------------------|-----------||

Repeat Riffs#1,2.

End Chord.
|-||
|-||
|-||
|2||
|0||
|-||

End.

Note:My first Centurian Tune.  Hope you guys don't have trouble
with the timing on this one.  I didn't have too many problems
figuring out the actual music, but man....some of it
can be really frustrating. heh..
:[  \m/

  Visit MetalTabs.com for more metal tablature

bottom separator

Contact Us | Privacy Policy | Disclaimer | Legal Notice
Copyright © 2001-2014 MetalTabs.com. All Rights Reserved.