top separator

Home

Forum

FAQ

Contact Us

Link to Us

MetalTabs.com logo

Bands

0-9

A

B

C

D

E

F

G

H

I

J

K

L

M

N

O

P

Q

R

S

T

U

V

W

X

Y

Z

Black Label Society - "Low Down" Bass Tab

Plain Text Version
More Black Label Society Tabs

Hits: 1962
Updated: 2004-03-08 10:53:01

By:

PH


#----------------------------------PLEASE NOTE---------------------------------#
#This file is the author's own work and represents their interpretation of the #
#song. You may only use this file for private study, scholarship, or research. #
#Unless specified otherwise, this is NOT an official tab from the band members.#
#------------------------------------------------------------------------------#

  Visit MetalTabs.com for more metal tablature
  
Band:  Black Label Society
Album: Sonic Brew
Song:  Low Down

Copyright (c)  1999, Spitfire
Version 1.0 - February, 2004

Transcribed By: Chris Medina
Email:          screwoffpeopleusingmynames@yahoo.com.au


.  - palm mute           /  - slide up to
\  - slide down to       ~  - vibrato
h  - hammer on           b  - Bend
p  - pull off            Suffixes for bend
t  - tap                 f  - full bend    h - half bend
ph - pinched harmonic    q  - quarter bend t - tap bend
*  - see comment         ^  - Hold bend    r release bend
x  - Stuccatto           ~  - vibrato bend
,  - slight palm mute    () - ghost note, sustained note
"  - tremolo note        <> - Trill

Screaming siren intro...

Intro (0:28)
G||----------------|-----------------------|------------------------------|
D||----------------|-----------------------|------------------------------|
A||----------------|-----------------------|------------------------------|
E||----------------|-----------------------|------------------------------|
B||--5-5-3-0--3/5--|--6-6-6-5-5-5-3-3-5-3--|--5-5-3-0--0-3-3-0-5-5/(19)\--|

G||----------------|-----------------------|------------------------|
D||----------------|-----------------------|------------------------|
A||----------------|-----------------------|------------------------|
E||----------------|-----------------------|------------------------|
B||--5-5-3-0--3/5--|--6-6-6-5-5-5-3-3-5-3--|--5-5-3-0--0-3-3-0-5-5--|

1st Verse (0:42)
G||---------------------|---------------|
D||---------------------|---------------|
A||---------------------|---------------|
E||---------------------|--7-6-5--------|
B||--3--0-3-0-3--0-3-0--|--------7-6-5--|

G||---------------------|--------------------|
D||---------------------|--------------------|
A||---------------------|--------------------| (repeat 4 times)
E||---------------------|--------------------|
B||--3--0-3-0-3--0-3-0--|--3/(19)\--3/(19)\--|

G||---------------------|---------------|-------------------------|
D||---------------------|---------------|-------------------------|
A||---------------------|---------------|-------------------------|
E||---------------------|--7-6-5--------|-------------------------|
B||--3--0-3-0-3--0-3-0--|--------7-6-5--|--3--0-3-0-3--0--r--19\--|

Chorus (1:16)
G||----------------|-----------------------|
D||----------------|-----------------------|
A||----------------|-----------------------|
E||----------------|-----------------------|
B||--5-5-3-0--3/5--|--6-6-6-5-5-5-3-3-5-3--|

G||------------------------------|
D||------------------------------|
A||------------------------------| (repeat 3 times)
E||------------------------------|
B||--5-5-3-0--0-3-3-0-5-5/(19)\--|

G||----------------|-----------------------|--------------------------------|
D||----------------|-----------------------|--------------------------------|
A||----------------|-----------------------|--------------------------------|
E||----------------|-----------------------|--------------------------------|
B||--5-5-3-0--3/5--|--6-6-6-5-5-5-3-3-5-3--|--5-5-3-0--0-3-5--0-3-5--0-3-5--|

2nd Verse (1:45)
G||---------------------|---------------|
D||---------------------|---------------|
A||---------------------|---------------|
E||---------------------|--7-6-5--------|
B||--3--0-3-0-3--0-3-0--|--------7-6-5--|

G||---------------------|--------------------|
D||---------------------|--------------------|
A||---------------------|--------------------| (repeat 5 times)
E||---------------------|--------------------|
B||--3--0-3-0-3--0-3-0--|--3/(19)\--3/(19)\--|

G||---------------------|---------------|-------------------------|
D||---------------------|---------------|-------------------------|
A||---------------------|---------------|-------------------------|
E||---------------------|--7-6-5--------|-------------------------|
B||--3--0-3-0-3--0-3-0--|--------7-6-5--|--3--0-3-0-3--0--r--19\--|

Chorus (2:25)
G||----------------|-----------------------|
D||----------------|-----------------------|
A||----------------|-----------------------|
E||----------------|-----------------------|
B||--5-5-3-0--3/5--|--6-6-6-5-5-5-3-3-5-3--|

G||------------------------------|
D||------------------------------|
A||------------------------------| (repeat 3 times)
E||------------------------------|
B||--5-5-3-0--0-3-3-0-5-5/(19)\--|

G||----------------|-----------------------|--------------------------------|
D||----------------|-----------------------|--------------------------------|
A||----------------|-----------------------|--------------------------------|
E||----------------|-----------------------|--------------------------------|
B||--5-5-3-0--3/5--|--6-6-6-5-5-5-3-3-5-3--|--5-5-3-0--0-3-5--0-3-5--0-3-5--|

Bridge (2:54)
(I'm unsure of the timing used here, but there are
2 more short open B notes played.

I hate saying this, but listen to the song for when they come in)

cont. (3:15)
G||-----------------------|-----------------------|
D||-----------------------|-----------------------|
A||--7--7--7--7--7h8p7-5--|--7--7--7--7--8^--7-5--|
E||-----------------------|-----------------------|
B||-----------------------|-----------------------|

G||-----------------------------------|--------------------------------|
D||-----------------------------------|--------------------------------|
A||-----------------------------------|------------------7-7-5--7-7-5--|
E||--7-7-7-7-7-7-7-7-7-7-7-7-7-7-7-7--|--7-7-7-7-7-7-7-7---------------|
B||-----------------------------------|--------------------------------|

G||-----------------------|-----------------------|
D||-----------------------|-----------------------|
A||--7--7--7--7--7h8p7-5--|--7--7--7--7--8^--7-5--|
E||-----------------------|-----------------------|
B||-----------------------|-----------------------|

G||-----------------------------------|--------------------------------|
D||-----------------------------------|--------------------------------|
A||-----------------------------------|------------------7-7-5--7-7-5--|
E||--7-7-7-7-7-7-7-7-7-7-7-7-7-7-7-7--|--7-7-7-7-7-7-7-7---------------|
B||-----------------------------------|--------------------------------|

(unsure of the next bit but this is how I like to play it,
even though I know it's not right, it still fits)
(3:35)
G||-------------------|-------------------|
D||--------7---7------|--------9---9------|
A||--5--5----5---5-5--|--7--7----7---7-7--|
E||-------------------|-------------------|
B||-------------------|-------------------|

G||-----------7------|-------9--------------------|
D||-------7----------|----------------------------|
A||--5--5---5---5-5--|--7--7---7/9-9-9-9-9-9-9-9--|
E||------------------|----------------------------|
B||------------------|----------------------------|

3rd Verse (3:45)
G||---------------------|---------------|
D||---------------------|---------------|
A||---------------------|---------------|
E||---------------------|--7-6-5--------|
B||--3--0-3-0-3--0-3-0--|--------7-6-5--|

G||---------------------|--------------------|
D||---------------------|--------------------|
A||---------------------|--------------------| (repeat 5 times)
E||---------------------|--------------------|
B||--3--0-3-0-3--0-3-0--|--3/(19)\--3/(19)\--|

G||---------------------|---------------|-------------------------|
D||---------------------|---------------|-------------------------|
A||---------------------|---------------|-------------------------|
E||---------------------|--7-6-5--------|-------------------------|
B||--3--0-3-0-3--0-3-0--|--------7-6-5--|--3--0-3-0-3--0--r--19\--|

Chorus (4:26)
G||----------------|-----------------------|
D||----------------|-----------------------|
A||----------------|-----------------------|
E||----------------|-----------------------|
B||--5-5-3-0--3/5--|--6-6-6-5-5-5-3-3-5-3--|

G||------------------------------|
D||------------------------------|
A||------------------------------| (repeat 3 times)
E||------------------------------|
B||--5-5-3-0--0-3-3-0-5-5/(19)\--|

G||----------------|-----------------------|
D||----------------|-----------------------|
A||----------------|-----------------------|
E||----------------|-----------------------|
B||--5-5-3-0--3/5--|--6-6-6-5-5-5-3-3-5-3--|

G||--------------------------------|-----------|
D||--------------------------------|-----------|
A||--------------------------------|-----------|
E||--------------------------------|-----------|
B||--5-5-3-0--0-3-5--0-3-5--0-3-5--|--(5)-3-0--|

END

  Visit MetalTabs.com for more metal tablature

bottom separator

Contact Us | Privacy Policy | Disclaimer
Copyright © 2001-2014 MetalTabs.com. All Rights Reserved.