top separator

Home

Forum

What's New

Submit a Tab

FAQ

Links

Contact Us

Link to Us

MetalTabs.com logo

Bands

0-9

A

B

C

D

E

F

G

H

I

J

K

L

M

N

O

P

Q

R

S

T

U

V

W

X

Y

Z

Search

What

Where
 

Fleshcrawl - "Metal Gods" Guitar Tab

Plain Text Version
More Fleshcrawl Tabs

Hits: 3166
Rated: 3.00 out of 5 (2 votes)
Updated: 2004-03-07 03:14:37

 

By:

Daniil

sendpm.gif

email.gif

Important note
This tab is available online because we obtained explicit permission from Fleshcrawl or their label.


#----------------------------------PLEASE NOTE---------------------------------#
#This file is the author's own work and represents their interpretation of the #
#song. You may only use this file for private study, scholarship, or research. #
#Unless specified otherwise, this is NOT an official tab from the band members.#
#------------------------------------------------------------------------------#

  Visit MetalTabs.com for more metal tablature
  
FLESHCRAWL-Metal Gods
Soulskinner-2001
Transcribed by Daniil Laletin
e-mail: dlaletin@mail.ru
version 1.0 January 2004

All corrections are welcome.

 " - tremolo
 / - slide down
 \ - slide up
 . - palm mute
 ~ - long sound
 x - rest
 p - pull off
 h - hammer on


Riff 1
|--------------------------------------------------|
|--------------------------------------------------|
|--------------------------------------------------|
|--------------------------------------------------|
|-4-44-4-44-22-4-44-4-------4-44-4-44-22-4-44-4--x-|
|-2-22-2-22-00-2-22-2-------2-22-2-22-00-2-22-2--x-|


Riff 2
|------------------------------------------------------------------------|
|------------------------------------------------------------------------|
|------------------------------------------------------------------------|
|------------------------------------6-----------------------------------|
|----4/6--------4/6--------4/6-------4---4/6--------4/6------4/6-------4-|
|-22-2/4-4-4-44-2/4-444444-2/4-4-4-4-----2/4-4-4-44-2/4-4444-2/4-4-4-4-2-|
  ..     . . ..     ......     . . .         . . ..     ....     . . .
|-------------------------------------------------------------------------|
|-------------------------------------------------------------------------|
|-------------------------------------------------------------------------|
|------------------------------------6------------------------------------|
|----4/6--------4/6--------4/6-------4---4/6--------4/6------4/6-------4x-|
|-22-2/4-4-4-44-2/4-444444-2/4-4-4-4-----2/4-4-4-44-2/4-4444-2/4-4-4-4-2x-|
  ..     . . ..     ......     . . .         . . ..     ....     . . .


Riff 3
|-----------------------------------------------|
|-----------------------------------------------|
|-----------------------------------------------|
|-----------------------------------------------|
|--------------7"-------------------------------|
|-5"--------7"-----------5"--------7"-0"--------|


Riff 4
|-----------------|
|-----------------|
|-----------------|
|-----------------|
|-4-------------4-|
|-2-4-4-444-444-2-|

  Visit MetalTabs.com for more metal tablature

bottom separator

Contact Us | Privacy Policy | Disclaimer | Legal Notice
Copyright © 2001-2014 MetalTabs.com. All Rights Reserved.