top separator

Home

Forum

What's New

Submit a Tab

FAQ

Links

Contact Us

Link to Us

MetalTabs.com logo

Bands

0-9

A

B

C

D

E

F

G

H

I

J

K

L

M

N

O

P

Q

R

S

T

U

V

W

X

Y

Z

Search

What

Where
 

Illdisposed - "With The Lost Souls On Our Side" Guitar Tab

Plain Text Version
More Illdisposed Tabs

Hits: 2477
Updated: 2004-03-07 03:10:52

 

By:

Daniil

sendpm.gif

email.gif

Important note
This tab is available online because we obtained explicit permission from Illdisposed or their label.


#----------------------------------PLEASE NOTE---------------------------------#
#This file is the author's own work and represents their interpretation of the #
#song. You may only use this file for private study, scholarship, or research. #
#Unless specified otherwise, this is NOT an official tab from the band members.#
#------------------------------------------------------------------------------#

  Visit MetalTabs.com for more metal tablature
  
ILLDISPOSED-With The Lost Souls On Our Side
Four Depressive Seasons-1993
Transcribed by Daniil Laletin
e-mail: dlaletin@mail.ru
version 1.0 December 2003

All corrections are welcome.

 " - tremolo
 / - slide down
 \ - slide up
 . - palm mute
 ~ - long sound
 x - rest


Riff 1
|---------------------------------|
|---------------------------------|
|---------------------------------|
|-------------5---4--4------------|
|-3--3--3/6-6-3-6-2--2--5/6-6-2-4-|
|-1--1--1/4-4---4-------3/4-4-0-2-|



Riff 2
|---------------------------------------------------------------|
|---------------------------------------------------------------|
|---------------------------------------------------------------|
|-----------4-5-10--9-5-3------------------4-5-10--9-5-8--------|
|-2--4-5-4--2-3--8--7-3-1--1-2---2--4-5-4--2-3--8--7-3-6--3-2---|
|-0--2-3-2---------------------2-0--2-3-2---------------------2-|



Riff 3
|--------------------------------|
|--------------------------------|
|--------------------------------|
|--------------------------------|
|-2---------------3--------------|
|-0----4-3-1-0-3--1----4-3-1-0-3-|



Riff 4
|--------------------------------------|
|--------------------------------------|
|--------------------------------------|
|--------------------------------------|
|---------11111111---------------------|
|-00000000--------22222222333222333222-|



Riff 5a
|--------------------------------------------------------------------|
|--------------------------------------------------------------------|
|---------------------------------------------------------------a.h.-|
|-----2-1-2-3-2-3-2-1-2-----------1-----------5-3-2--2-1-2-------2---|
|-2---------------------2-3-4-3-2-1---3-2-4-3--------------3-2-3-----|
|-0---------------------0--------------------------------------------|


Riff 5b
|--------------------------------------------------|
|--------------------------------------------------|
|--------------------------------------0---------0-|
|-----2-1-2-3-2-3-2-1-2-----------1----0----1----0-|
|-2---------------------2-3-4-3-2-1---------1------|
|-0---------------------0--------------------------|

|------------------|
|------------------|
|------------------|
|-4----1----4----1-|
|-4----1----4----1-|
|------------------|


Riff 6
|-----------------|
|-----------------|
|-3----7----------|
|-1----5----8-7-5-|
|-1----5----------|
|-----------------|



Fill 1
|--------------------------------------|
|--------------------------------------|
|--------------------------------------|
|-8-7-5-4-0-8-7-5-4-0-8-9-10-8-7-5-4-0-|
|---------------------6-7--8-----------|
|--------------------------------------|



Riff 7                 Riff 8
|------------------|  |------------------|
|------------------|  |------------------|
|------------------|  |------------------|
|------------------|  |------------------|
|------------------|  |------------------|
|-0000000033332222-|  |-3333333366665555-|


Riff 9
|--------------------------------------------------------------|
|--------------------------------------------------------------|
|--------------------------------------------------------------|
|--------------------------------------------------------------|
|--------------------------------------2-----2-2-----2-2-----2-|
|-000000003333222211111111222233330000-0-000-0-0-000-0-0-000-0-|

|--------------------------------------------------------------|
|--------------------------------------------------------------|
|--------------------------------------------------------------|
|--------------------------------------------------------------|
|------------------------------------------2-2-----2-2-----2-2-|
|-000000003333222211111111222233330000-000-0-0-000-0-0-000-0-0-|


Riff 10
|---------------------------------|
|---------------------------------|
|---------------------------------|
|---------------------------------|
|-3-4-5-3-4-5-3-4-5-3-4-5-3-4-5-6-|
|-1-2-3-1-2-3-1-2-3-1-2-3-1-2-3-4-|



Riff 11a                      Riff 11b
|-------------------------|  |-------------------------|
|-------------------------|  |-------------------------|
|-------------------------|  |-------------------------|
|-------------------------|  |-------------------------|
|-5-5-7/8-7/8-3-3-8-7-5-4-|  |-----7/8-7/8-3-3-8-7-5-4-|
|-3-3-5/6-5/6-1-1---------|  |-333-5/6-5/6-1-1---------|
  . .         . .              ...         . .


Fill 2
|----------------------------------------------------|
|----------------------------------------------------|
|----------------------------------------------------|
|----------------------------------------------------|
|-8-7-5-4-8-7-5-4-9-8-6-5-9-8-6-5-10-9-7-6-11-10-8-7-|
|----------------------------------------------------|



Solo riff
|-----------------------------------------------------------------|
|-----------------------------------------------------------------|
|-----------------------------------------------------------------|
|-----------------------------------------------------------------|
|-----------------------------------------------------------------|
|-333-333-555-444-333-333-555-444-333-333-555-444-333-333-555-444-|

|-----------------------------------------------------------------|
|-----------------------------------------------------------------|
|-----------------------------------------------------------------|
|-----------------------------------------------------------------|
|-----------------------------------------------------------------|
|-000-000-222-111-000-000-222-111-000-000-222-111-000-000-222-111-|


End with E chord

  Visit MetalTabs.com for more metal tablature

bottom separator

Contact Us | Privacy Policy | Disclaimer | Legal Notice
Copyright © 2001-2014 MetalTabs.com. All Rights Reserved.