top separator

Home

Forum

What's New

Submit a Tab

FAQ

Links

Contact Us

Link to Us

MetalTabs.com logo

Bands

0-9

A

B

C

D

E

F

G

H

I

J

K

L

M

N

O

P

Q

R

S

T

U

V

W

X

Y

Z

Search

What

Where
 

Illdisposed - "Wardance Of The Technocracy" Guitar Tab

Plain Text Version
More Illdisposed Tabs

Hits: 2618
Updated: 2004-03-07 03:10:29

 

By:

Daniil

sendpm.gif

email.gif

Important note
This tab is available online because we obtained explicit permission from Illdisposed or their label.


#----------------------------------PLEASE NOTE---------------------------------#
#This file is the author's own work and represents their interpretation of the #
#song. You may only use this file for private study, scholarship, or research. #
#Unless specified otherwise, this is NOT an official tab from the band members.#
#------------------------------------------------------------------------------#

  Visit MetalTabs.com for more metal tablature
  
ILLDISPOSED-Wardange Of The Technocracy
Four Depressive Seasons-1993
Transcribed by Daniil Laletin
e-mail: dlaletin@mail.ru
version 1.0 December 2003

All corrections are welcome.

 " - tremolo
 / - slide down
 \ - slide up
 . - palm mute
 ~ - long sound
 x - rest


Riff 1
|------------------------------------------------------------------|
|------------------------------------------------------------------|
|------------------------------------------------------------------|
|------------------------------------------------------------------|
|---------22220000------------------------22220000-----------------|
|-00000000--------333355553333222200000000--------3333555533335555-|



Riff 2
|---------------------------------|
|---------------------------------|
|-----4---------------4-----------|
|-2---2-2---------2---2-2---------|
|-2---2-0-3-5-3-2-2---2-0-3-5-3-5-|
|-0-------3-5-3-2-0-------3-5-3-5-|



Riff 3
|----------------------------------------------------------|
|----------------------------------------------------------|
|----------------------------------------------------------|
|----------------------------------------------------------|
|---------55553333----555566665555--------55553333-3-5-3-2-|
|-33333333--------4444------------33333333---------3-5-3-2-|



Riff 4                                     Fill 1
|--------------------------------------|  |-------------|
|--------------------------------------|  |-------------|
|--------------------------------------|  |-------------|
|--------------------------------------|  |-------------|
|--------------------------1-1-1-------|  |-------------|
|-0-0-0000000000000000-0-0-------3-3-3-|  |-2h3h4-1h2h3-|



Riff 5
|------------------------------------------------------------------|
|------------------------------------------------------------------|
|------------------------------------------------------------------|
|------------------------------------------------------------------|
|-----------------------------77776666-----------------------------|
|-0000000011110000222233330000--------0000777700005555666655556666-|



Riff 6a
|---------------------------------------------|
|---------------------------------------------|
|---------------------------------------------|
|-----------------------9-8-------------------|
|---------3-----4-5-----7-6-----9-----7-8-7-8-|
|-0-0-0-0-1-0-0-2-3-0-0-----0-0-7-0-0-5-6-5-6-|



Riff 7
|---------------------------|
|---------------------------|
|---------------------------|
|-----2------------2--x-1-0-|gtr 1
|-----2--2-5-4-----2--x-1-0-|
|-000-0--------000-0--x-----|
|                                    Fill 2
|---------------------------|       |-----|
|---------------------------|       |-----|
|--------1-4-3--------------|       |-----|
|-----2------------2--x-1-0-|gtr 2  |-3-4-|
|-----2------------2--x-1-0-|       |-1-2-|
|-000-0--------000-0--x-----|       |-----|



Riff 6b
|-----------------------------------------------|
|-----------------------------------------------|
|-----------------------------------------------|
|-----------------------9-8---------------------|
|---------3-----4-5-----7-6-----9-----7-8---7-8-|
|-0-0-0-0-1-0-0-2-3-0-0-----0-0-7-0-0-5-6---5-6-|



Riff 8
|------------------------------------|
|------------------------------------|
|------------------------------------|
|------------------------------------|
|-2-----2-----2----2-----2----5----6-|
|-0-000-0-000-0-00-0-000-0-33-3-44-4-|


Riff 9
|-----------------------------------|
|-----------------------------------|
|-----------------------------------|
|-----------------------------------|
|-2-----2-----2-----2-----2-----2-3-|
|-0-000-0-000-0-000-0-000-0-000-0-1-|


Riff 10
|-----------------------------------------------------------------|
|-----------------------------------------------------------------|
|-----------------------------------------------------------------|
|-----------------------------------------------------------------|
|-2-----2-----2-----2-----2-----2-3-----3-----3-----3-----3-----3-|
|-0-000-0-000-0-000-0-000-0-000-0-1-111-1-111-1-111-1-111-1-111-1-|



Riff 11
|-----------------------------------------------------|
|-----------------------------------------------------|
|-----------------------------------------------------|
|-----------------------------------------------------|
|----5----5----5----5-222-222-222-222-222-222-222-222-|
|-3333-3333-3333-3333-000-000-000-000-000-000-000-000-|



Riff 12
|---------------------------------------------------------------------------|
|---------------------------------------------------------------------------|
|---------------------------------------------------------------------------|
|--------------------------------------------------------444333---333222----|
|-4-4---4---3-4-3-0-4-4---4---3-443300-4-4---4---3-4-3-0-------444------333-|
|-2---2---2-1-------2---2---2-1--------2---2---2-1--------------------------|

|---------------------------------------------------------------------------|
|---------------------------------------------------------------------------|
|---------------------------------------------------------------------------|
|--------------------------------------------------------333222---222111----|
|-4-4---4---3-4-3-0-4-4---4---3-443300-4-4---4---3-4-3-0-------333------222-|
|-2---2---2-1-------2---2---2-1--------2---2---2-1--------------------------|


Riff 13
|---------------------------------|
|---------------------------------|
|---------------------------------|
|---------------------------------|
|-4/5-4/5-4/5-4/5-7\6-7\6-7\6-7\6-|
|-2/3-2/3-2/3-2/3-5\4-5\4-5\4-5\4-|


Riff 14
|---------------------------------------------------------|
|---------------------------------------------------------|
|---------------------------------------------------------|
|---------2h3------------0h2------------2h3----4h5----3h4-|
|---------------------------------------------------------|
|-2-222-2-----22-2-222-2-----22-2-222-2-----22-----22-----|


Riff 15
|-------------------------------------------------------------|
|-------------------------------------------------------------|
|-------------------------------------------------------------|
|-----6~-----5~-----6~----------------------------------------|
|---------------------------1-2-----2~-----1~-----2~------1-2-|
|-333----333----333----3333-2-3-333----333----333----3333-2-3-|



Riff 16
|----------------------------------------|
|----------------------------------------|
|----------------------------------------|
|----------------------------------------|
|-----3\2/3-----3\2/3-----3\2/3------1-2-|
|-333-4\3/4-333-4\3/4-333-4\3/4-3333-2-3-|


Riff 17a
|----------------------------------|
|----------------------------------|
|----------------------------------|
|----------------------------------|
|-----3\2-----3\2-----3\2------1-2-|
|-333-4\3-333-4\3-333-4\3-3333-2-3-|


Riff 17b
|-------------------------------------|
|-------------------------------------|
|-------------------------------------|
|-------------------------------------|
|------3\2------3\2------3\2------1-2-|
|-3333-4\3-3333-4\3-3333-4\3-3333-2-3-|

  Visit MetalTabs.com for more metal tablature

bottom separator

Contact Us | Privacy Policy | Disclaimer | Legal Notice
Copyright © 2001-2014 MetalTabs.com. All Rights Reserved.